  0
SECTION
  2
HEADER
  9
$ANGBASE
  50
0.0
  9
$ANGDIR
  70
1
  9
$MEASUREMENT
  70
1
  0
ENDSEC
  0
SECTION
  2
TABLES
  0
TABLE
  2
LTYPE
  70
4
  0
LTYPE
  5
40F
  2
CONTINUOUS
  70
0
  3
Solid line
  72
65
  73
0
  40
0.0
  0
LTYPE
  5
410
  2
DASHDOT
 70
0
  3
Dash Dot ____ _ ____ _
 72
65
 73
4
 40
2.0
 49
1.25
 49
-0.25
 49
0.25
 49
-0.25
  0
LTYPE
  5
411
  2
DASHED
 70
0
  3
Dashed __ __ __ __ __
 72
65
 73
2
 40
0.75
 49
0.5
 49
-0.25
  0
LTYPE
  5
43B
  2
DOTTED
 70
0
  3
Dotted .  .  .  .
 72
65
 73
2
 40
0.2
 49
0.0
 49
-0.2
  0
ENDTAB
  0
TABLE
  2
STYLE
  70
4
  0
STYLE
  2
KICAD
  70
0
  40
0
  41
1
  42
1
  50
0
  71
0
  3
isocp.shx
  0
STYLE
  2
KICADB
  70
0
  40
0
  41
1
  42
1
  50
0
  71
0
  3
isocp.shx
  0
STYLE
  2
KICADI
  70
0
  40
0
  41
1
  42
1
  50
15
  71
0
  3
isocp.shx
  0
STYLE
  2
KICADBI
  70
0
  40
0
  41
1
  42
1
  50
15
  71
0
  3
isocp.shx
  0
ENDTAB
  0
TABLE
  2
LAYER
  70
1
  0
LAYER
  2
BLACK
  70
0
  62
7
  6
CONTINUOUS
  0
ENDTAB
  0
ENDSEC
  0
SECTION
  2
ENTITIES
0
LINE
8
BLACK
6
CONTINUOUS
10
115.666
20
-103.504
11
115.684
21
-103.516
0
LINE
8
BLACK
6
CONTINUOUS
10
115.684
20
-103.516
11
115.696
21
-103.534
0
LINE
8
BLACK
6
CONTINUOUS
10
115.696
20
-103.534
11
115.7
21
-103.555
0
LINE
8
BLACK
6
CONTINUOUS
10
115.7
20
-103.555
11
115.7
21
-103.995
0
LINE
8
BLACK
6
CONTINUOUS
10
115.7
20
-103.995
11
115.696
21
-104.016
0
LINE
8
BLACK
6
CONTINUOUS
10
115.696
20
-104.016
11
115.684
21
-104.034
0
LINE
8
BLACK
6
CONTINUOUS
10
115.684
20
-104.034
11
115.666
21
-104.046
0
LINE
8
BLACK
6
CONTINUOUS
10
115.666
20
-104.046
11
115.645
21
-104.05
0
LINE
8
BLACK
6
CONTINUOUS
10
115.645
20
-104.05
11
114.655
21
-104.05
0
LINE
8
BLACK
6
CONTINUOUS
10
114.655
20
-104.05
11
114.634
21
-104.046
0
LINE
8
BLACK
6
CONTINUOUS
10
114.634
20
-104.046
11
114.616
21
-104.034
0
LINE
8
BLACK
6
CONTINUOUS
10
114.616
20
-104.034
11
114.604
21
-104.016
0
LINE
8
BLACK
6
CONTINUOUS
10
114.604
20
-104.016
11
114.6
21
-103.995
0
LINE
8
BLACK
6
CONTINUOUS
10
114.6
20
-103.995
11
114.6
21
-103.555
0
LINE
8
BLACK
6
CONTINUOUS
10
114.6
20
-103.555
11
114.604
21
-103.534
0
LINE
8
BLACK
6
CONTINUOUS
10
114.604
20
-103.534
11
114.616
21
-103.516
0
LINE
8
BLACK
6
CONTINUOUS
10
114.616
20
-103.516
11
114.634
21
-103.504
0
LINE
8
BLACK
6
CONTINUOUS
10
114.634
20
-103.504
11
114.655
21
-103.5
0
LINE
8
BLACK
6
CONTINUOUS
10
114.655
20
-103.5
11
115.645
21
-103.5
0
LINE
8
BLACK
6
CONTINUOUS
10
115.645
20
-103.5
11
115.666
21
-103.504
0
LINE
8
BLACK
6
CONTINUOUS
10
137.866
20
-102.904
11
137.884
21
-102.916
0
LINE
8
BLACK
6
CONTINUOUS
10
137.884
20
-102.916
11
137.896
21
-102.934
0
LINE
8
BLACK
6
CONTINUOUS
10
137.896
20
-102.934
11
137.9
21
-102.955
0
LINE
8
BLACK
6
CONTINUOUS
10
137.9
20
-102.955
11
137.9
21
-103.945
0
LINE
8
BLACK
6
CONTINUOUS
10
137.9
20
-103.945
11
137.896
21
-103.966
0
LINE
8
BLACK
6
CONTINUOUS
10
137.896
20
-103.966
11
137.884
21
-103.984
0
LINE
8
BLACK
6
CONTINUOUS
10
137.884
20
-103.984
11
137.866
21
-103.996
0
LINE
8
BLACK
6
CONTINUOUS
10
137.866
20
-103.996
11
137.845
21
-104
0
LINE
8
BLACK
6
CONTINUOUS
10
137.845
20
-104
11
137.405
21
-104
0
LINE
8
BLACK
6
CONTINUOUS
10
137.405
20
-104
11
137.384
21
-103.996
0
LINE
8
BLACK
6
CONTINUOUS
10
137.384
20
-103.996
11
137.366
21
-103.984
0
LINE
8
BLACK
6
CONTINUOUS
10
137.366
20
-103.984
11
137.354
21
-103.966
0
LINE
8
BLACK
6
CONTINUOUS
10
137.354
20
-103.966
11
137.35
21
-103.945
0
LINE
8
BLACK
6
CONTINUOUS
10
137.35
20
-103.945
11
137.35
21
-102.955
0
LINE
8
BLACK
6
CONTINUOUS
10
137.35
20
-102.955
11
137.354
21
-102.934
0
LINE
8
BLACK
6
CONTINUOUS
10
137.354
20
-102.934
11
137.366
21
-102.916
0
LINE
8
BLACK
6
CONTINUOUS
10
137.366
20
-102.916
11
137.384
21
-102.904
0
LINE
8
BLACK
6
CONTINUOUS
10
137.384
20
-102.904
11
137.405
21
-102.9
0
LINE
8
BLACK
6
CONTINUOUS
10
137.405
20
-102.9
11
137.845
21
-102.9
0
LINE
8
BLACK
6
CONTINUOUS
10
137.845
20
-102.9
11
137.866
21
-102.904
0
LINE
8
BLACK
6
CONTINUOUS
10
136.216
20
-102.904
11
136.234
21
-102.916
0
LINE
8
BLACK
6
CONTINUOUS
10
136.234
20
-102.916
11
136.246
21
-102.934
0
LINE
8
BLACK
6
CONTINUOUS
10
136.246
20
-102.934
11
136.25
21
-102.955
0
LINE
8
BLACK
6
CONTINUOUS
10
136.25
20
-102.955
11
136.25
21
-103.945
0
LINE
8
BLACK
6
CONTINUOUS
10
136.25
20
-103.945
11
136.246
21
-103.966
0
LINE
8
BLACK
6
CONTINUOUS
10
136.246
20
-103.966
11
136.234
21
-103.984
0
LINE
8
BLACK
6
CONTINUOUS
10
136.234
20
-103.984
11
136.216
21
-103.996
0
LINE
8
BLACK
6
CONTINUOUS
10
136.216
20
-103.996
11
136.195
21
-104
0
LINE
8
BLACK
6
CONTINUOUS
10
136.195
20
-104
11
135.755
21
-104
0
LINE
8
BLACK
6
CONTINUOUS
10
135.755
20
-104
11
135.734
21
-103.996
0
LINE
8
BLACK
6
CONTINUOUS
10
135.734
20
-103.996
11
135.716
21
-103.984
0
LINE
8
BLACK
6
CONTINUOUS
10
135.716
20
-103.984
11
135.704
21
-103.966
0
LINE
8
BLACK
6
CONTINUOUS
10
135.704
20
-103.966
11
135.7
21
-103.945
0
LINE
8
BLACK
6
CONTINUOUS
10
135.7
20
-103.945
11
135.7
21
-102.955
0
LINE
8
BLACK
6
CONTINUOUS
10
135.7
20
-102.955
11
135.704
21
-102.934
0
LINE
8
BLACK
6
CONTINUOUS
10
135.704
20
-102.934
11
135.716
21
-102.916
0
LINE
8
BLACK
6
CONTINUOUS
10
135.716
20
-102.916
11
135.734
21
-102.904
0
LINE
8
BLACK
6
CONTINUOUS
10
135.734
20
-102.904
11
135.755
21
-102.9
0
LINE
8
BLACK
6
CONTINUOUS
10
135.755
20
-102.9
11
136.195
21
-102.9
0
LINE
8
BLACK
6
CONTINUOUS
10
136.195
20
-102.9
11
136.216
21
-102.904
0
LINE
8
BLACK
6
CONTINUOUS
10
120.402
20
-103.573
11
120.417
21
-103.583
0
LINE
8
BLACK
6
CONTINUOUS
10
120.417
20
-103.583
11
120.427
21
-103.598
0
LINE
8
BLACK
6
CONTINUOUS
10
120.427
20
-103.598
11
120.43
21
-103.615
0
LINE
8
BLACK
6
CONTINUOUS
10
120.43
20
-103.615
11
120.43
21
-103.885
0
LINE
8
BLACK
6
CONTINUOUS
10
120.43
20
-103.885
11
120.427
21
-103.902
0
LINE
8
BLACK
6
CONTINUOUS
10
120.427
20
-103.902
11
120.417
21
-103.917
0
LINE
8
BLACK
6
CONTINUOUS
10
120.417
20
-103.917
11
120.402
21
-103.927
0
LINE
8
BLACK
6
CONTINUOUS
10
120.402
20
-103.927
11
120.385
21
-103.93
0
LINE
8
BLACK
6
CONTINUOUS
10
120.385
20
-103.93
11
120.015
21
-103.93
0
LINE
8
BLACK
6
CONTINUOUS
10
120.015
20
-103.93
11
119.998
21
-103.927
0
LINE
8
BLACK
6
CONTINUOUS
10
119.998
20
-103.927
11
119.983
21
-103.917
0
LINE
8
BLACK
6
CONTINUOUS
10
119.983
20
-103.917
11
119.973
21
-103.902
0
LINE
8
BLACK
6
CONTINUOUS
10
119.973
20
-103.902
11
119.97
21
-103.885
0
LINE
8
BLACK
6
CONTINUOUS
10
119.97
20
-103.885
11
119.97
21
-103.615
0
LINE
8
BLACK
6
CONTINUOUS
10
119.97
20
-103.615
11
119.973
21
-103.598
0
LINE
8
BLACK
6
CONTINUOUS
10
119.973
20
-103.598
11
119.983
21
-103.583
0
LINE
8
BLACK
6
CONTINUOUS
10
119.983
20
-103.583
11
119.998
21
-103.573
0
LINE
8
BLACK
6
CONTINUOUS
10
119.998
20
-103.573
11
120.015
21
-103.57
0
LINE
8
BLACK
6
CONTINUOUS
10
120.015
20
-103.57
11
120.385
21
-103.57
0
LINE
8
BLACK
6
CONTINUOUS
10
120.385
20
-103.57
11
120.402
21
-103.573
0
LINE
8
BLACK
6
CONTINUOUS
10
121.108
20
-103.573
11
121.119
21
-103.581
0
LINE
8
BLACK
6
CONTINUOUS
10
121.119
20
-103.581
11
121.127
21
-103.592
0
LINE
8
BLACK
6
CONTINUOUS
10
121.127
20
-103.592
11
121.13
21
-103.606
0
LINE
8
BLACK
6
CONTINUOUS
10
121.13
20
-103.606
11
121.13
21
-103.894
0
LINE
8
BLACK
6
CONTINUOUS
10
121.13
20
-103.894
11
121.127
21
-103.908
0
LINE
8
BLACK
6
CONTINUOUS
10
121.127
20
-103.908
11
121.119
21
-103.919
0
LINE
8
BLACK
6
CONTINUOUS
10
121.119
20
-103.919
11
121.108
21
-103.927
0
LINE
8
BLACK
6
CONTINUOUS
10
121.108
20
-103.927
11
121.094
21
-103.93
0
LINE
8
BLACK
6
CONTINUOUS
10
121.094
20
-103.93
11
120.706
21
-103.93
0
LINE
8
BLACK
6
CONTINUOUS
10
120.706
20
-103.93
11
120.692
21
-103.927
0
LINE
8
BLACK
6
CONTINUOUS
10
120.692
20
-103.927
11
120.681
21
-103.919
0
LINE
8
BLACK
6
CONTINUOUS
10
120.681
20
-103.919
11
120.673
21
-103.908
0
LINE
8
BLACK
6
CONTINUOUS
10
120.673
20
-103.908
11
120.67
21
-103.894
0
LINE
8
BLACK
6
CONTINUOUS
10
120.67
20
-103.894
11
120.67
21
-103.606
0
LINE
8
BLACK
6
CONTINUOUS
10
120.67
20
-103.606
11
120.673
21
-103.592
0
LINE
8
BLACK
6
CONTINUOUS
10
120.673
20
-103.592
11
120.681
21
-103.581
0
LINE
8
BLACK
6
CONTINUOUS
10
120.681
20
-103.581
11
120.692
21
-103.573
0
LINE
8
BLACK
6
CONTINUOUS
10
120.692
20
-103.573
11
120.706
21
-103.57
0
LINE
8
BLACK
6
CONTINUOUS
10
120.706
20
-103.57
11
121.094
21
-103.57
0
LINE
8
BLACK
6
CONTINUOUS
10
121.094
20
-103.57
11
121.108
21
-103.573
0
LINE
8
BLACK
6
CONTINUOUS
10
142.752
20
-103.523
11
142.767
21
-103.533
0
LINE
8
BLACK
6
CONTINUOUS
10
142.767
20
-103.533
11
142.777
21
-103.548
0
LINE
8
BLACK
6
CONTINUOUS
10
142.777
20
-103.548
11
142.78
21
-103.565
0
LINE
8
BLACK
6
CONTINUOUS
10
142.78
20
-103.565
11
142.78
21
-103.835
0
LINE
8
BLACK
6
CONTINUOUS
10
142.78
20
-103.835
11
142.777
21
-103.852
0
LINE
8
BLACK
6
CONTINUOUS
10
142.777
20
-103.852
11
142.767
21
-103.867
0
LINE
8
BLACK
6
CONTINUOUS
10
142.767
20
-103.867
11
142.752
21
-103.877
0
LINE
8
BLACK
6
CONTINUOUS
10
142.752
20
-103.877
11
142.735
21
-103.88
0
LINE
8
BLACK
6
CONTINUOUS
10
142.735
20
-103.88
11
142.365
21
-103.88
0
LINE
8
BLACK
6
CONTINUOUS
10
142.365
20
-103.88
11
142.348
21
-103.877
0
LINE
8
BLACK
6
CONTINUOUS
10
142.348
20
-103.877
11
142.333
21
-103.867
0
LINE
8
BLACK
6
CONTINUOUS
10
142.333
20
-103.867
11
142.323
21
-103.852
0
LINE
8
BLACK
6
CONTINUOUS
10
142.323
20
-103.852
11
142.32
21
-103.835
0
LINE
8
BLACK
6
CONTINUOUS
10
142.32
20
-103.835
11
142.32
21
-103.565
0
LINE
8
BLACK
6
CONTINUOUS
10
142.32
20
-103.565
11
142.323
21
-103.548
0
LINE
8
BLACK
6
CONTINUOUS
10
142.323
20
-103.548
11
142.333
21
-103.533
0
LINE
8
BLACK
6
CONTINUOUS
10
142.333
20
-103.533
11
142.348
21
-103.523
0
LINE
8
BLACK
6
CONTINUOUS
10
142.348
20
-103.523
11
142.365
21
-103.52
0
LINE
8
BLACK
6
CONTINUOUS
10
142.365
20
-103.52
11
142.735
21
-103.52
0
LINE
8
BLACK
6
CONTINUOUS
10
142.735
20
-103.52
11
142.752
21
-103.523
0
LINE
8
BLACK
6
CONTINUOUS
10
143.452
20
-103.523
11
143.467
21
-103.533
0
LINE
8
BLACK
6
CONTINUOUS
10
143.467
20
-103.533
11
143.477
21
-103.548
0
LINE
8
BLACK
6
CONTINUOUS
10
143.477
20
-103.548
11
143.48
21
-103.565
0
LINE
8
BLACK
6
CONTINUOUS
10
143.48
20
-103.565
11
143.48
21
-103.835
0
LINE
8
BLACK
6
CONTINUOUS
10
143.48
20
-103.835
11
143.477
21
-103.852
0
LINE
8
BLACK
6
CONTINUOUS
10
143.477
20
-103.852
11
143.467
21
-103.867
0
LINE
8
BLACK
6
CONTINUOUS
10
143.467
20
-103.867
11
143.452
21
-103.877
0
LINE
8
BLACK
6
CONTINUOUS
10
143.452
20
-103.877
11
143.435
21
-103.88
0
LINE
8
BLACK
6
CONTINUOUS
10
143.435
20
-103.88
11
143.065
21
-103.88
0
LINE
8
BLACK
6
CONTINUOUS
10
143.065
20
-103.88
11
143.048
21
-103.877
0
LINE
8
BLACK
6
CONTINUOUS
10
143.048
20
-103.877
11
143.033
21
-103.867
0
LINE
8
BLACK
6
CONTINUOUS
10
143.033
20
-103.867
11
143.023
21
-103.852
0
LINE
8
BLACK
6
CONTINUOUS
10
143.023
20
-103.852
11
143.02
21
-103.835
0
LINE
8
BLACK
6
CONTINUOUS
10
143.02
20
-103.835
11
143.02
21
-103.565
0
LINE
8
BLACK
6
CONTINUOUS
10
143.02
20
-103.565
11
143.023
21
-103.548
0
LINE
8
BLACK
6
CONTINUOUS
10
143.023
20
-103.548
11
143.033
21
-103.533
0
LINE
8
BLACK
6
CONTINUOUS
10
143.033
20
-103.533
11
143.048
21
-103.523
0
LINE
8
BLACK
6
CONTINUOUS
10
143.048
20
-103.523
11
143.065
21
-103.52
0
LINE
8
BLACK
6
CONTINUOUS
10
143.065
20
-103.52
11
143.435
21
-103.52
0
LINE
8
BLACK
6
CONTINUOUS
10
143.435
20
-103.52
11
143.452
21
-103.523
0
LINE
8
BLACK
6
CONTINUOUS
10
119.382
20
-103.161
11
119.431
21
-103.194
0
LINE
8
BLACK
6
CONTINUOUS
10
119.431
20
-103.194
11
119.464
21
-103.243
0
LINE
8
BLACK
6
CONTINUOUS
10
119.464
20
-103.243
11
119.475
21
-103.3
0
LINE
8
BLACK
6
CONTINUOUS
10
119.475
20
-103.3
11
119.475
21
-103.6
0
LINE
8
BLACK
6
CONTINUOUS
10
119.475
20
-103.6
11
119.464
21
-103.657
0
LINE
8
BLACK
6
CONTINUOUS
10
119.464
20
-103.657
11
119.431
21
-103.706
0
LINE
8
BLACK
6
CONTINUOUS
10
119.431
20
-103.706
11
119.382
21
-103.739
0
LINE
8
BLACK
6
CONTINUOUS
10
119.382
20
-103.739
11
119.325
21
-103.75
0
LINE
8
BLACK
6
CONTINUOUS
10
119.325
20
-103.75
11
118.15
21
-103.75
0
LINE
8
BLACK
6
CONTINUOUS
10
118.15
20
-103.75
11
118.093
21
-103.739
0
LINE
8
BLACK
6
CONTINUOUS
10
118.093
20
-103.739
11
118.044
21
-103.706
0
LINE
8
BLACK
6
CONTINUOUS
10
118.044
20
-103.706
11
118.011
21
-103.657
0
LINE
8
BLACK
6
CONTINUOUS
10
118.011
20
-103.657
11
118
21
-103.6
0
LINE
8
BLACK
6
CONTINUOUS
10
118
20
-103.6
11
118
21
-103.3
0
LINE
8
BLACK
6
CONTINUOUS
10
118
20
-103.3
11
118.011
21
-103.243
0
LINE
8
BLACK
6
CONTINUOUS
10
118.011
20
-103.243
11
118.044
21
-103.194
0
LINE
8
BLACK
6
CONTINUOUS
10
118.044
20
-103.194
11
118.093
21
-103.161
0
LINE
8
BLACK
6
CONTINUOUS
10
118.093
20
-103.161
11
118.15
21
-103.15
0
LINE
8
BLACK
6
CONTINUOUS
10
118.15
20
-103.15
11
119.325
21
-103.15
0
LINE
8
BLACK
6
CONTINUOUS
10
119.325
20
-103.15
11
119.382
21
-103.161
0
LINE
8
BLACK
6
CONTINUOUS
10
142.002
20
-103.273
11
142.017
21
-103.283
0
LINE
8
BLACK
6
CONTINUOUS
10
142.017
20
-103.283
11
142.027
21
-103.298
0
LINE
8
BLACK
6
CONTINUOUS
10
142.027
20
-103.298
11
142.03
21
-103.315
0
LINE
8
BLACK
6
CONTINUOUS
10
142.03
20
-103.315
11
142.03
21
-103.685
0
LINE
8
BLACK
6
CONTINUOUS
10
142.03
20
-103.685
11
142.027
21
-103.702
0
LINE
8
BLACK
6
CONTINUOUS
10
142.027
20
-103.702
11
142.017
21
-103.717
0
LINE
8
BLACK
6
CONTINUOUS
10
142.017
20
-103.717
11
142.002
21
-103.727
0
LINE
8
BLACK
6
CONTINUOUS
10
142.002
20
-103.727
11
141.985
21
-103.73
0
LINE
8
BLACK
6
CONTINUOUS
10
141.985
20
-103.73
11
141.715
21
-103.73
0
LINE
8
BLACK
6
CONTINUOUS
10
141.715
20
-103.73
11
141.698
21
-103.727
0
LINE
8
BLACK
6
CONTINUOUS
10
141.698
20
-103.727
11
141.683
21
-103.717
0
LINE
8
BLACK
6
CONTINUOUS
10
141.683
20
-103.717
11
141.673
21
-103.702
0
LINE
8
BLACK
6
CONTINUOUS
10
141.673
20
-103.702
11
141.67
21
-103.685
0
LINE
8
BLACK
6
CONTINUOUS
10
141.67
20
-103.685
11
141.67
21
-103.315
0
LINE
8
BLACK
6
CONTINUOUS
10
141.67
20
-103.315
11
141.673
21
-103.298
0
LINE
8
BLACK
6
CONTINUOUS
10
141.673
20
-103.298
11
141.683
21
-103.283
0
LINE
8
BLACK
6
CONTINUOUS
10
141.683
20
-103.283
11
141.698
21
-103.273
0
LINE
8
BLACK
6
CONTINUOUS
10
141.698
20
-103.273
11
141.715
21
-103.27
0
LINE
8
BLACK
6
CONTINUOUS
10
141.715
20
-103.27
11
141.985
21
-103.27
0
LINE
8
BLACK
6
CONTINUOUS
10
141.985
20
-103.27
11
142.002
21
-103.273
0
LINE
8
BLACK
6
CONTINUOUS
10
141.102
20
-103.273
11
141.117
21
-103.283
0
LINE
8
BLACK
6
CONTINUOUS
10
141.117
20
-103.283
11
141.127
21
-103.298
0
LINE
8
BLACK
6
CONTINUOUS
10
141.127
20
-103.298
11
141.13
21
-103.315
0
LINE
8
BLACK
6
CONTINUOUS
10
141.13
20
-103.315
11
141.13
21
-103.685
0
LINE
8
BLACK
6
CONTINUOUS
10
141.13
20
-103.685
11
141.127
21
-103.702
0
LINE
8
BLACK
6
CONTINUOUS
10
141.127
20
-103.702
11
141.117
21
-103.717
0
LINE
8
BLACK
6
CONTINUOUS
10
141.117
20
-103.717
11
141.102
21
-103.727
0
LINE
8
BLACK
6
CONTINUOUS
10
141.102
20
-103.727
11
141.085
21
-103.73
0
LINE
8
BLACK
6
CONTINUOUS
10
141.085
20
-103.73
11
140.815
21
-103.73
0
LINE
8
BLACK
6
CONTINUOUS
10
140.815
20
-103.73
11
140.798
21
-103.727
0
LINE
8
BLACK
6
CONTINUOUS
10
140.798
20
-103.727
11
140.783
21
-103.717
0
LINE
8
BLACK
6
CONTINUOUS
10
140.783
20
-103.717
11
140.773
21
-103.702
0
LINE
8
BLACK
6
CONTINUOUS
10
140.773
20
-103.702
11
140.77
21
-103.685
0
LINE
8
BLACK
6
CONTINUOUS
10
140.77
20
-103.685
11
140.77
21
-103.315
0
LINE
8
BLACK
6
CONTINUOUS
10
140.77
20
-103.315
11
140.773
21
-103.298
0
LINE
8
BLACK
6
CONTINUOUS
10
140.773
20
-103.298
11
140.783
21
-103.283
0
LINE
8
BLACK
6
CONTINUOUS
10
140.783
20
-103.283
11
140.798
21
-103.273
0
LINE
8
BLACK
6
CONTINUOUS
10
140.798
20
-103.273
11
140.815
21
-103.27
0
LINE
8
BLACK
6
CONTINUOUS
10
140.815
20
-103.27
11
141.085
21
-103.27
0
LINE
8
BLACK
6
CONTINUOUS
10
141.085
20
-103.27
11
141.102
21
-103.273
0
LINE
8
BLACK
6
CONTINUOUS
10
131.402
20
-103.073
11
131.417
21
-103.083
0
LINE
8
BLACK
6
CONTINUOUS
10
131.417
20
-103.083
11
131.427
21
-103.098
0
LINE
8
BLACK
6
CONTINUOUS
10
131.427
20
-103.098
11
131.43
21
-103.115
0
LINE
8
BLACK
6
CONTINUOUS
10
131.43
20
-103.115
11
131.43
21
-103.385
0
LINE
8
BLACK
6
CONTINUOUS
10
131.43
20
-103.385
11
131.427
21
-103.402
0
LINE
8
BLACK
6
CONTINUOUS
10
131.427
20
-103.402
11
131.417
21
-103.417
0
LINE
8
BLACK
6
CONTINUOUS
10
131.417
20
-103.417
11
131.402
21
-103.427
0
LINE
8
BLACK
6
CONTINUOUS
10
131.402
20
-103.427
11
131.385
21
-103.43
0
LINE
8
BLACK
6
CONTINUOUS
10
131.385
20
-103.43
11
131.015
21
-103.43
0
LINE
8
BLACK
6
CONTINUOUS
10
131.015
20
-103.43
11
130.998
21
-103.427
0
LINE
8
BLACK
6
CONTINUOUS
10
130.998
20
-103.427
11
130.983
21
-103.417
0
LINE
8
BLACK
6
CONTINUOUS
10
130.983
20
-103.417
11
130.973
21
-103.402
0
LINE
8
BLACK
6
CONTINUOUS
10
130.973
20
-103.402
11
130.97
21
-103.385
0
LINE
8
BLACK
6
CONTINUOUS
10
130.97
20
-103.385
11
130.97
21
-103.115
0
LINE
8
BLACK
6
CONTINUOUS
10
130.97
20
-103.115
11
130.973
21
-103.098
0
LINE
8
BLACK
6
CONTINUOUS
10
130.973
20
-103.098
11
130.983
21
-103.083
0
LINE
8
BLACK
6
CONTINUOUS
10
130.983
20
-103.083
11
130.998
21
-103.073
0
LINE
8
BLACK
6
CONTINUOUS
10
130.998
20
-103.073
11
131.015
21
-103.07
0
LINE
8
BLACK
6
CONTINUOUS
10
131.015
20
-103.07
11
131.385
21
-103.07
0
LINE
8
BLACK
6
CONTINUOUS
10
131.385
20
-103.07
11
131.402
21
-103.073
0
LINE
8
BLACK
6
CONTINUOUS
10
134.952
20
-103.073
11
134.967
21
-103.083
0
LINE
8
BLACK
6
CONTINUOUS
10
134.967
20
-103.083
11
134.977
21
-103.098
0
LINE
8
BLACK
6
CONTINUOUS
10
134.977
20
-103.098
11
134.98
21
-103.115
0
LINE
8
BLACK
6
CONTINUOUS
10
134.98
20
-103.115
11
134.98
21
-103.385
0
LINE
8
BLACK
6
CONTINUOUS
10
134.98
20
-103.385
11
134.977
21
-103.402
0
LINE
8
BLACK
6
CONTINUOUS
10
134.977
20
-103.402
11
134.967
21
-103.417
0
LINE
8
BLACK
6
CONTINUOUS
10
134.967
20
-103.417
11
134.952
21
-103.427
0
LINE
8
BLACK
6
CONTINUOUS
10
134.952
20
-103.427
11
134.935
21
-103.43
0
LINE
8
BLACK
6
CONTINUOUS
10
134.935
20
-103.43
11
134.565
21
-103.43
0
LINE
8
BLACK
6
CONTINUOUS
10
134.565
20
-103.43
11
134.548
21
-103.427
0
LINE
8
BLACK
6
CONTINUOUS
10
134.548
20
-103.427
11
134.533
21
-103.417
0
LINE
8
BLACK
6
CONTINUOUS
10
134.533
20
-103.417
11
134.523
21
-103.402
0
LINE
8
BLACK
6
CONTINUOUS
10
134.523
20
-103.402
11
134.52
21
-103.385
0
LINE
8
BLACK
6
CONTINUOUS
10
134.52
20
-103.385
11
134.52
21
-103.115
0
LINE
8
BLACK
6
CONTINUOUS
10
134.52
20
-103.115
11
134.523
21
-103.098
0
LINE
8
BLACK
6
CONTINUOUS
10
134.523
20
-103.098
11
134.533
21
-103.083
0
LINE
8
BLACK
6
CONTINUOUS
10
134.533
20
-103.083
11
134.548
21
-103.073
0
LINE
8
BLACK
6
CONTINUOUS
10
134.548
20
-103.073
11
134.565
21
-103.07
0
LINE
8
BLACK
6
CONTINUOUS
10
134.565
20
-103.07
11
134.935
21
-103.07
0
LINE
8
BLACK
6
CONTINUOUS
10
134.935
20
-103.07
11
134.952
21
-103.073
0
LINE
8
BLACK
6
CONTINUOUS
10
120.402
20
-102.673
11
120.417
21
-102.683
0
LINE
8
BLACK
6
CONTINUOUS
10
120.417
20
-102.683
11
120.427
21
-102.698
0
LINE
8
BLACK
6
CONTINUOUS
10
120.427
20
-102.698
11
120.43
21
-102.715
0
LINE
8
BLACK
6
CONTINUOUS
10
120.43
20
-102.715
11
120.43
21
-102.985
0
LINE
8
BLACK
6
CONTINUOUS
10
120.43
20
-102.985
11
120.427
21
-103.002
0
LINE
8
BLACK
6
CONTINUOUS
10
120.427
20
-103.002
11
120.417
21
-103.017
0
LINE
8
BLACK
6
CONTINUOUS
10
120.417
20
-103.017
11
120.402
21
-103.027
0
LINE
8
BLACK
6
CONTINUOUS
10
120.402
20
-103.027
11
120.385
21
-103.03
0
LINE
8
BLACK
6
CONTINUOUS
10
120.385
20
-103.03
11
120.015
21
-103.03
0
LINE
8
BLACK
6
CONTINUOUS
10
120.015
20
-103.03
11
119.998
21
-103.027
0
LINE
8
BLACK
6
CONTINUOUS
10
119.998
20
-103.027
11
119.983
21
-103.017
0
LINE
8
BLACK
6
CONTINUOUS
10
119.983
20
-103.017
11
119.973
21
-103.002
0
LINE
8
BLACK
6
CONTINUOUS
10
119.973
20
-103.002
11
119.97
21
-102.985
0
LINE
8
BLACK
6
CONTINUOUS
10
119.97
20
-102.985
11
119.97
21
-102.715
0
LINE
8
BLACK
6
CONTINUOUS
10
119.97
20
-102.715
11
119.973
21
-102.698
0
LINE
8
BLACK
6
CONTINUOUS
10
119.973
20
-102.698
11
119.983
21
-102.683
0
LINE
8
BLACK
6
CONTINUOUS
10
119.983
20
-102.683
11
119.998
21
-102.673
0
LINE
8
BLACK
6
CONTINUOUS
10
119.998
20
-102.673
11
120.015
21
-102.67
0
LINE
8
BLACK
6
CONTINUOUS
10
120.015
20
-102.67
11
120.385
21
-102.67
0
LINE
8
BLACK
6
CONTINUOUS
10
120.385
20
-102.67
11
120.402
21
-102.673
0
LINE
8
BLACK
6
CONTINUOUS
10
121.108
20
-102.673
11
121.119
21
-102.681
0
LINE
8
BLACK
6
CONTINUOUS
10
121.119
20
-102.681
11
121.127
21
-102.692
0
LINE
8
BLACK
6
CONTINUOUS
10
121.127
20
-102.692
11
121.13
21
-102.706
0
LINE
8
BLACK
6
CONTINUOUS
10
121.13
20
-102.706
11
121.13
21
-102.994
0
LINE
8
BLACK
6
CONTINUOUS
10
121.13
20
-102.994
11
121.127
21
-103.008
0
LINE
8
BLACK
6
CONTINUOUS
10
121.127
20
-103.008
11
121.119
21
-103.019
0
LINE
8
BLACK
6
CONTINUOUS
10
121.119
20
-103.019
11
121.108
21
-103.027
0
LINE
8
BLACK
6
CONTINUOUS
10
121.108
20
-103.027
11
121.094
21
-103.03
0
LINE
8
BLACK
6
CONTINUOUS
10
121.094
20
-103.03
11
120.706
21
-103.03
0
LINE
8
BLACK
6
CONTINUOUS
10
120.706
20
-103.03
11
120.692
21
-103.027
0
LINE
8
BLACK
6
CONTINUOUS
10
120.692
20
-103.027
11
120.681
21
-103.019
0
LINE
8
BLACK
6
CONTINUOUS
10
120.681
20
-103.019
11
120.673
21
-103.008
0
LINE
8
BLACK
6
CONTINUOUS
10
120.673
20
-103.008
11
120.67
21
-102.994
0
LINE
8
BLACK
6
CONTINUOUS
10
120.67
20
-102.994
11
120.67
21
-102.706
0
LINE
8
BLACK
6
CONTINUOUS
10
120.67
20
-102.706
11
120.673
21
-102.692
0
LINE
8
BLACK
6
CONTINUOUS
10
120.673
20
-102.692
11
120.681
21
-102.681
0
LINE
8
BLACK
6
CONTINUOUS
10
120.681
20
-102.681
11
120.692
21
-102.673
0
LINE
8
BLACK
6
CONTINUOUS
10
120.692
20
-102.673
11
120.706
21
-102.67
0
LINE
8
BLACK
6
CONTINUOUS
10
120.706
20
-102.67
11
121.094
21
-102.67
0
LINE
8
BLACK
6
CONTINUOUS
10
121.094
20
-102.67
11
121.108
21
-102.673
0
LINE
8
BLACK
6
CONTINUOUS
10
142.752
20
-102.623
11
142.767
21
-102.633
0
LINE
8
BLACK
6
CONTINUOUS
10
142.767
20
-102.633
11
142.777
21
-102.648
0
LINE
8
BLACK
6
CONTINUOUS
10
142.777
20
-102.648
11
142.78
21
-102.665
0
LINE
8
BLACK
6
CONTINUOUS
10
142.78
20
-102.665
11
142.78
21
-102.935
0
LINE
8
BLACK
6
CONTINUOUS
10
142.78
20
-102.935
11
142.777
21
-102.952
0
LINE
8
BLACK
6
CONTINUOUS
10
142.777
20
-102.952
11
142.767
21
-102.967
0
LINE
8
BLACK
6
CONTINUOUS
10
142.767
20
-102.967
11
142.752
21
-102.977
0
LINE
8
BLACK
6
CONTINUOUS
10
142.752
20
-102.977
11
142.735
21
-102.98
0
LINE
8
BLACK
6
CONTINUOUS
10
142.735
20
-102.98
11
142.365
21
-102.98
0
LINE
8
BLACK
6
CONTINUOUS
10
142.365
20
-102.98
11
142.348
21
-102.977
0
LINE
8
BLACK
6
CONTINUOUS
10
142.348
20
-102.977
11
142.333
21
-102.967
0
LINE
8
BLACK
6
CONTINUOUS
10
142.333
20
-102.967
11
142.323
21
-102.952
0
LINE
8
BLACK
6
CONTINUOUS
10
142.323
20
-102.952
11
142.32
21
-102.935
0
LINE
8
BLACK
6
CONTINUOUS
10
142.32
20
-102.935
11
142.32
21
-102.665
0
LINE
8
BLACK
6
CONTINUOUS
10
142.32
20
-102.665
11
142.323
21
-102.648
0
LINE
8
BLACK
6
CONTINUOUS
10
142.323
20
-102.648
11
142.333
21
-102.633
0
LINE
8
BLACK
6
CONTINUOUS
10
142.333
20
-102.633
11
142.348
21
-102.623
0
LINE
8
BLACK
6
CONTINUOUS
10
142.348
20
-102.623
11
142.365
21
-102.62
0
LINE
8
BLACK
6
CONTINUOUS
10
142.365
20
-102.62
11
142.735
21
-102.62
0
LINE
8
BLACK
6
CONTINUOUS
10
142.735
20
-102.62
11
142.752
21
-102.623
0
LINE
8
BLACK
6
CONTINUOUS
10
143.452
20
-102.623
11
143.467
21
-102.633
0
LINE
8
BLACK
6
CONTINUOUS
10
143.467
20
-102.633
11
143.477
21
-102.648
0
LINE
8
BLACK
6
CONTINUOUS
10
143.477
20
-102.648
11
143.48
21
-102.665
0
LINE
8
BLACK
6
CONTINUOUS
10
143.48
20
-102.665
11
143.48
21
-102.935
0
LINE
8
BLACK
6
CONTINUOUS
10
143.48
20
-102.935
11
143.477
21
-102.952
0
LINE
8
BLACK
6
CONTINUOUS
10
143.477
20
-102.952
11
143.467
21
-102.967
0
LINE
8
BLACK
6
CONTINUOUS
10
143.467
20
-102.967
11
143.452
21
-102.977
0
LINE
8
BLACK
6
CONTINUOUS
10
143.452
20
-102.977
11
143.435
21
-102.98
0
LINE
8
BLACK
6
CONTINUOUS
10
143.435
20
-102.98
11
143.065
21
-102.98
0
LINE
8
BLACK
6
CONTINUOUS
10
143.065
20
-102.98
11
143.048
21
-102.977
0
LINE
8
BLACK
6
CONTINUOUS
10
143.048
20
-102.977
11
143.033
21
-102.967
0
LINE
8
BLACK
6
CONTINUOUS
10
143.033
20
-102.967
11
143.023
21
-102.952
0
LINE
8
BLACK
6
CONTINUOUS
10
143.023
20
-102.952
11
143.02
21
-102.935
0
LINE
8
BLACK
6
CONTINUOUS
10
143.02
20
-102.935
11
143.02
21
-102.665
0
LINE
8
BLACK
6
CONTINUOUS
10
143.02
20
-102.665
11
143.023
21
-102.648
0
LINE
8
BLACK
6
CONTINUOUS
10
143.023
20
-102.648
11
143.033
21
-102.633
0
LINE
8
BLACK
6
CONTINUOUS
10
143.033
20
-102.633
11
143.048
21
-102.623
0
LINE
8
BLACK
6
CONTINUOUS
10
143.048
20
-102.623
11
143.065
21
-102.62
0
LINE
8
BLACK
6
CONTINUOUS
10
143.065
20
-102.62
11
143.435
21
-102.62
0
LINE
8
BLACK
6
CONTINUOUS
10
143.435
20
-102.62
11
143.452
21
-102.623
0
LINE
8
BLACK
6
CONTINUOUS
10
117.507
20
-102.211
11
117.556
21
-102.244
0
LINE
8
BLACK
6
CONTINUOUS
10
117.556
20
-102.244
11
117.589
21
-102.293
0
LINE
8
BLACK
6
CONTINUOUS
10
117.589
20
-102.293
11
117.6
21
-102.35
0
LINE
8
BLACK
6
CONTINUOUS
10
117.6
20
-102.35
11
117.6
21
-102.65
0
LINE
8
BLACK
6
CONTINUOUS
10
117.6
20
-102.65
11
117.589
21
-102.707
0
LINE
8
BLACK
6
CONTINUOUS
10
117.589
20
-102.707
11
117.556
21
-102.756
0
LINE
8
BLACK
6
CONTINUOUS
10
117.556
20
-102.756
11
117.507
21
-102.789
0
LINE
8
BLACK
6
CONTINUOUS
10
117.507
20
-102.789
11
117.45
21
-102.8
0
LINE
8
BLACK
6
CONTINUOUS
10
117.45
20
-102.8
11
116.275
21
-102.8
0
LINE
8
BLACK
6
CONTINUOUS
10
116.275
20
-102.8
11
116.218
21
-102.789
0
LINE
8
BLACK
6
CONTINUOUS
10
116.218
20
-102.789
11
116.169
21
-102.756
0
LINE
8
BLACK
6
CONTINUOUS
10
116.169
20
-102.756
11
116.136
21
-102.707
0
LINE
8
BLACK
6
CONTINUOUS
10
116.136
20
-102.707
11
116.125
21
-102.65
0
LINE
8
BLACK
6
CONTINUOUS
10
116.125
20
-102.65
11
116.125
21
-102.35
0
LINE
8
BLACK
6
CONTINUOUS
10
116.125
20
-102.35
11
116.136
21
-102.293
0
LINE
8
BLACK
6
CONTINUOUS
10
116.136
20
-102.293
11
116.169
21
-102.244
0
LINE
8
BLACK
6
CONTINUOUS
10
116.169
20
-102.244
11
116.218
21
-102.211
0
LINE
8
BLACK
6
CONTINUOUS
10
116.218
20
-102.211
11
116.275
21
-102.2
0
LINE
8
BLACK
6
CONTINUOUS
10
116.275
20
-102.2
11
117.45
21
-102.2
0
LINE
8
BLACK
6
CONTINUOUS
10
117.45
20
-102.2
11
117.507
21
-102.211
0
LINE
8
BLACK
6
CONTINUOUS
10
131.402
20
-102.173
11
131.417
21
-102.183
0
LINE
8
BLACK
6
CONTINUOUS
10
131.417
20
-102.183
11
131.427
21
-102.198
0
LINE
8
BLACK
6
CONTINUOUS
10
131.427
20
-102.198
11
131.43
21
-102.215
0
LINE
8
BLACK
6
CONTINUOUS
10
131.43
20
-102.215
11
131.43
21
-102.485
0
LINE
8
BLACK
6
CONTINUOUS
10
131.43
20
-102.485
11
131.427
21
-102.502
0
LINE
8
BLACK
6
CONTINUOUS
10
131.427
20
-102.502
11
131.417
21
-102.517
0
LINE
8
BLACK
6
CONTINUOUS
10
131.417
20
-102.517
11
131.402
21
-102.527
0
LINE
8
BLACK
6
CONTINUOUS
10
131.402
20
-102.527
11
131.385
21
-102.53
0
LINE
8
BLACK
6
CONTINUOUS
10
131.385
20
-102.53
11
131.015
21
-102.53
0
LINE
8
BLACK
6
CONTINUOUS
10
131.015
20
-102.53
11
130.998
21
-102.527
0
LINE
8
BLACK
6
CONTINUOUS
10
130.998
20
-102.527
11
130.983
21
-102.517
0
LINE
8
BLACK
6
CONTINUOUS
10
130.983
20
-102.517
11
130.973
21
-102.502
0
LINE
8
BLACK
6
CONTINUOUS
10
130.973
20
-102.502
11
130.97
21
-102.485
0
LINE
8
BLACK
6
CONTINUOUS
10
130.97
20
-102.485
11
130.97
21
-102.215
0
LINE
8
BLACK
6
CONTINUOUS
10
130.97
20
-102.215
11
130.973
21
-102.198
0
LINE
8
BLACK
6
CONTINUOUS
10
130.973
20
-102.198
11
130.983
21
-102.183
0
LINE
8
BLACK
6
CONTINUOUS
10
130.983
20
-102.183
11
130.998
21
-102.173
0
LINE
8
BLACK
6
CONTINUOUS
10
130.998
20
-102.173
11
131.015
21
-102.17
0
LINE
8
BLACK
6
CONTINUOUS
10
131.015
20
-102.17
11
131.385
21
-102.17
0
LINE
8
BLACK
6
CONTINUOUS
10
131.385
20
-102.17
11
131.402
21
-102.173
0
LINE
8
BLACK
6
CONTINUOUS
10
134.952
20
-102.173
11
134.967
21
-102.183
0
LINE
8
BLACK
6
CONTINUOUS
10
134.967
20
-102.183
11
134.977
21
-102.198
0
LINE
8
BLACK
6
CONTINUOUS
10
134.977
20
-102.198
11
134.98
21
-102.215
0
LINE
8
BLACK
6
CONTINUOUS
10
134.98
20
-102.215
11
134.98
21
-102.485
0
LINE
8
BLACK
6
CONTINUOUS
10
134.98
20
-102.485
11
134.977
21
-102.502
0
LINE
8
BLACK
6
CONTINUOUS
10
134.977
20
-102.502
11
134.967
21
-102.517
0
LINE
8
BLACK
6
CONTINUOUS
10
134.967
20
-102.517
11
134.952
21
-102.527
0
LINE
8
BLACK
6
CONTINUOUS
10
134.952
20
-102.527
11
134.935
21
-102.53
0
LINE
8
BLACK
6
CONTINUOUS
10
134.935
20
-102.53
11
134.565
21
-102.53
0
LINE
8
BLACK
6
CONTINUOUS
10
134.565
20
-102.53
11
134.548
21
-102.527
0
LINE
8
BLACK
6
CONTINUOUS
10
134.548
20
-102.527
11
134.533
21
-102.517
0
LINE
8
BLACK
6
CONTINUOUS
10
134.533
20
-102.517
11
134.523
21
-102.502
0
LINE
8
BLACK
6
CONTINUOUS
10
134.523
20
-102.502
11
134.52
21
-102.485
0
LINE
8
BLACK
6
CONTINUOUS
10
134.52
20
-102.485
11
134.52
21
-102.215
0
LINE
8
BLACK
6
CONTINUOUS
10
134.52
20
-102.215
11
134.523
21
-102.198
0
LINE
8
BLACK
6
CONTINUOUS
10
134.523
20
-102.198
11
134.533
21
-102.183
0
LINE
8
BLACK
6
CONTINUOUS
10
134.533
20
-102.183
11
134.548
21
-102.173
0
LINE
8
BLACK
6
CONTINUOUS
10
134.548
20
-102.173
11
134.565
21
-102.17
0
LINE
8
BLACK
6
CONTINUOUS
10
134.565
20
-102.17
11
134.935
21
-102.17
0
LINE
8
BLACK
6
CONTINUOUS
10
134.935
20
-102.17
11
134.952
21
-102.173
0
LINE
8
BLACK
6
CONTINUOUS
10
122.902
20
-102.073
11
122.917
21
-102.083
0
LINE
8
BLACK
6
CONTINUOUS
10
122.917
20
-102.083
11
122.927
21
-102.098
0
LINE
8
BLACK
6
CONTINUOUS
10
122.927
20
-102.098
11
122.93
21
-102.115
0
LINE
8
BLACK
6
CONTINUOUS
10
122.93
20
-102.115
11
122.93
21
-102.385
0
LINE
8
BLACK
6
CONTINUOUS
10
122.93
20
-102.385
11
122.927
21
-102.402
0
LINE
8
BLACK
6
CONTINUOUS
10
122.927
20
-102.402
11
122.917
21
-102.417
0
LINE
8
BLACK
6
CONTINUOUS
10
122.917
20
-102.417
11
122.902
21
-102.427
0
LINE
8
BLACK
6
CONTINUOUS
10
122.902
20
-102.427
11
122.885
21
-102.43
0
LINE
8
BLACK
6
CONTINUOUS
10
122.885
20
-102.43
11
122.515
21
-102.43
0
LINE
8
BLACK
6
CONTINUOUS
10
122.515
20
-102.43
11
122.498
21
-102.427
0
LINE
8
BLACK
6
CONTINUOUS
10
122.498
20
-102.427
11
122.483
21
-102.417
0
LINE
8
BLACK
6
CONTINUOUS
10
122.483
20
-102.417
11
122.473
21
-102.402
0
LINE
8
BLACK
6
CONTINUOUS
10
122.473
20
-102.402
11
122.47
21
-102.385
0
LINE
8
BLACK
6
CONTINUOUS
10
122.47
20
-102.385
11
122.47
21
-102.115
0
LINE
8
BLACK
6
CONTINUOUS
10
122.47
20
-102.115
11
122.473
21
-102.098
0
LINE
8
BLACK
6
CONTINUOUS
10
122.473
20
-102.098
11
122.483
21
-102.083
0
LINE
8
BLACK
6
CONTINUOUS
10
122.483
20
-102.083
11
122.498
21
-102.073
0
LINE
8
BLACK
6
CONTINUOUS
10
122.498
20
-102.073
11
122.515
21
-102.07
0
LINE
8
BLACK
6
CONTINUOUS
10
122.515
20
-102.07
11
122.885
21
-102.07
0
LINE
8
BLACK
6
CONTINUOUS
10
122.885
20
-102.07
11
122.902
21
-102.073
0
LINE
8
BLACK
6
CONTINUOUS
10
120.402
20
-102.073
11
120.417
21
-102.083
0
LINE
8
BLACK
6
CONTINUOUS
10
120.417
20
-102.083
11
120.427
21
-102.098
0
LINE
8
BLACK
6
CONTINUOUS
10
120.427
20
-102.098
11
120.43
21
-102.115
0
LINE
8
BLACK
6
CONTINUOUS
10
120.43
20
-102.115
11
120.43
21
-102.385
0
LINE
8
BLACK
6
CONTINUOUS
10
120.43
20
-102.385
11
120.427
21
-102.402
0
LINE
8
BLACK
6
CONTINUOUS
10
120.427
20
-102.402
11
120.417
21
-102.417
0
LINE
8
BLACK
6
CONTINUOUS
10
120.417
20
-102.417
11
120.402
21
-102.427
0
LINE
8
BLACK
6
CONTINUOUS
10
120.402
20
-102.427
11
120.385
21
-102.43
0
LINE
8
BLACK
6
CONTINUOUS
10
120.385
20
-102.43
11
120.015
21
-102.43
0
LINE
8
BLACK
6
CONTINUOUS
10
120.015
20
-102.43
11
119.998
21
-102.427
0
LINE
8
BLACK
6
CONTINUOUS
10
119.998
20
-102.427
11
119.983
21
-102.417
0
LINE
8
BLACK
6
CONTINUOUS
10
119.983
20
-102.417
11
119.973
21
-102.402
0
LINE
8
BLACK
6
CONTINUOUS
10
119.973
20
-102.402
11
119.97
21
-102.385
0
LINE
8
BLACK
6
CONTINUOUS
10
119.97
20
-102.385
11
119.97
21
-102.115
0
LINE
8
BLACK
6
CONTINUOUS
10
119.97
20
-102.115
11
119.973
21
-102.098
0
LINE
8
BLACK
6
CONTINUOUS
10
119.973
20
-102.098
11
119.983
21
-102.083
0
LINE
8
BLACK
6
CONTINUOUS
10
119.983
20
-102.083
11
119.998
21
-102.073
0
LINE
8
BLACK
6
CONTINUOUS
10
119.998
20
-102.073
11
120.015
21
-102.07
0
LINE
8
BLACK
6
CONTINUOUS
10
120.015
20
-102.07
11
120.385
21
-102.07
0
LINE
8
BLACK
6
CONTINUOUS
10
120.385
20
-102.07
11
120.402
21
-102.073
0
LINE
8
BLACK
6
CONTINUOUS
10
122.208
20
-102.073
11
122.219
21
-102.081
0
LINE
8
BLACK
6
CONTINUOUS
10
122.219
20
-102.081
11
122.227
21
-102.092
0
LINE
8
BLACK
6
CONTINUOUS
10
122.227
20
-102.092
11
122.23
21
-102.106
0
LINE
8
BLACK
6
CONTINUOUS
10
122.23
20
-102.106
11
122.23
21
-102.394
0
LINE
8
BLACK
6
CONTINUOUS
10
122.23
20
-102.394
11
122.227
21
-102.408
0
LINE
8
BLACK
6
CONTINUOUS
10
122.227
20
-102.408
11
122.219
21
-102.419
0
LINE
8
BLACK
6
CONTINUOUS
10
122.219
20
-102.419
11
122.208
21
-102.427
0
LINE
8
BLACK
6
CONTINUOUS
10
122.208
20
-102.427
11
122.194
21
-102.43
0
LINE
8
BLACK
6
CONTINUOUS
10
122.194
20
-102.43
11
121.806
21
-102.43
0
LINE
8
BLACK
6
CONTINUOUS
10
121.806
20
-102.43
11
121.792
21
-102.427
0
LINE
8
BLACK
6
CONTINUOUS
10
121.792
20
-102.427
11
121.781
21
-102.419
0
LINE
8
BLACK
6
CONTINUOUS
10
121.781
20
-102.419
11
121.773
21
-102.408
0
LINE
8
BLACK
6
CONTINUOUS
10
121.773
20
-102.408
11
121.77
21
-102.394
0
LINE
8
BLACK
6
CONTINUOUS
10
121.77
20
-102.394
11
121.77
21
-102.106
0
LINE
8
BLACK
6
CONTINUOUS
10
121.77
20
-102.106
11
121.773
21
-102.092
0
LINE
8
BLACK
6
CONTINUOUS
10
121.773
20
-102.092
11
121.781
21
-102.081
0
LINE
8
BLACK
6
CONTINUOUS
10
121.781
20
-102.081
11
121.792
21
-102.073
0
LINE
8
BLACK
6
CONTINUOUS
10
121.792
20
-102.073
11
121.806
21
-102.07
0
LINE
8
BLACK
6
CONTINUOUS
10
121.806
20
-102.07
11
122.194
21
-102.07
0
LINE
8
BLACK
6
CONTINUOUS
10
122.194
20
-102.07
11
122.208
21
-102.073
0
LINE
8
BLACK
6
CONTINUOUS
10
121.102
20
-102.073
11
121.117
21
-102.083
0
LINE
8
BLACK
6
CONTINUOUS
10
121.117
20
-102.083
11
121.127
21
-102.098
0
LINE
8
BLACK
6
CONTINUOUS
10
121.127
20
-102.098
11
121.13
21
-102.115
0
LINE
8
BLACK
6
CONTINUOUS
10
121.13
20
-102.115
11
121.13
21
-102.385
0
LINE
8
BLACK
6
CONTINUOUS
10
121.13
20
-102.385
11
121.127
21
-102.402
0
LINE
8
BLACK
6
CONTINUOUS
10
121.127
20
-102.402
11
121.117
21
-102.417
0
LINE
8
BLACK
6
CONTINUOUS
10
121.117
20
-102.417
11
121.102
21
-102.427
0
LINE
8
BLACK
6
CONTINUOUS
10
121.102
20
-102.427
11
121.085
21
-102.43
0
LINE
8
BLACK
6
CONTINUOUS
10
121.085
20
-102.43
11
120.715
21
-102.43
0
LINE
8
BLACK
6
CONTINUOUS
10
120.715
20
-102.43
11
120.698
21
-102.427
0
LINE
8
BLACK
6
CONTINUOUS
10
120.698
20
-102.427
11
120.683
21
-102.417
0
LINE
8
BLACK
6
CONTINUOUS
10
120.683
20
-102.417
11
120.673
21
-102.402
0
LINE
8
BLACK
6
CONTINUOUS
10
120.673
20
-102.402
11
120.67
21
-102.385
0
LINE
8
BLACK
6
CONTINUOUS
10
120.67
20
-102.385
11
120.67
21
-102.115
0
LINE
8
BLACK
6
CONTINUOUS
10
120.67
20
-102.115
11
120.673
21
-102.098
0
LINE
8
BLACK
6
CONTINUOUS
10
120.673
20
-102.098
11
120.683
21
-102.083
0
LINE
8
BLACK
6
CONTINUOUS
10
120.683
20
-102.083
11
120.698
21
-102.073
0
LINE
8
BLACK
6
CONTINUOUS
10
120.698
20
-102.073
11
120.715
21
-102.07
0
LINE
8
BLACK
6
CONTINUOUS
10
120.715
20
-102.07
11
121.085
21
-102.07
0
LINE
8
BLACK
6
CONTINUOUS
10
121.085
20
-102.07
11
121.102
21
-102.073
0
LINE
8
BLACK
6
CONTINUOUS
10
115.666
20
-101.854
11
115.684
21
-101.866
0
LINE
8
BLACK
6
CONTINUOUS
10
115.684
20
-101.866
11
115.696
21
-101.884
0
LINE
8
BLACK
6
CONTINUOUS
10
115.696
20
-101.884
11
115.7
21
-101.905
0
LINE
8
BLACK
6
CONTINUOUS
10
115.7
20
-101.905
11
115.7
21
-102.345
0
LINE
8
BLACK
6
CONTINUOUS
10
115.7
20
-102.345
11
115.696
21
-102.366
0
LINE
8
BLACK
6
CONTINUOUS
10
115.696
20
-102.366
11
115.684
21
-102.384
0
LINE
8
BLACK
6
CONTINUOUS
10
115.684
20
-102.384
11
115.666
21
-102.396
0
LINE
8
BLACK
6
CONTINUOUS
10
115.666
20
-102.396
11
115.645
21
-102.4
0
LINE
8
BLACK
6
CONTINUOUS
10
115.645
20
-102.4
11
114.655
21
-102.4
0
LINE
8
BLACK
6
CONTINUOUS
10
114.655
20
-102.4
11
114.634
21
-102.396
0
LINE
8
BLACK
6
CONTINUOUS
10
114.634
20
-102.396
11
114.616
21
-102.384
0
LINE
8
BLACK
6
CONTINUOUS
10
114.616
20
-102.384
11
114.604
21
-102.366
0
LINE
8
BLACK
6
CONTINUOUS
10
114.604
20
-102.366
11
114.6
21
-102.345
0
LINE
8
BLACK
6
CONTINUOUS
10
114.6
20
-102.345
11
114.6
21
-101.905
0
LINE
8
BLACK
6
CONTINUOUS
10
114.6
20
-101.905
11
114.604
21
-101.884
0
LINE
8
BLACK
6
CONTINUOUS
10
114.604
20
-101.884
11
114.616
21
-101.866
0
LINE
8
BLACK
6
CONTINUOUS
10
114.616
20
-101.866
11
114.634
21
-101.854
0
LINE
8
BLACK
6
CONTINUOUS
10
114.634
20
-101.854
11
114.655
21
-101.85
0
LINE
8
BLACK
6
CONTINUOUS
10
114.655
20
-101.85
11
115.645
21
-101.85
0
LINE
8
BLACK
6
CONTINUOUS
10
115.645
20
-101.85
11
115.666
21
-101.854
0
LINE
8
BLACK
6
CONTINUOUS
10
139.152
20
-100.661
11
139.201
21
-100.694
0
LINE
8
BLACK
6
CONTINUOUS
10
139.201
20
-100.694
11
139.234
21
-100.743
0
LINE
8
BLACK
6
CONTINUOUS
10
139.234
20
-100.743
11
139.245
21
-100.8
0
LINE
8
BLACK
6
CONTINUOUS
10
139.245
20
-100.8
11
139.245
21
-102.1
0
LINE
8
BLACK
6
CONTINUOUS
10
139.245
20
-102.1
11
139.234
21
-102.157
0
LINE
8
BLACK
6
CONTINUOUS
10
139.234
20
-102.157
11
139.201
21
-102.206
0
LINE
8
BLACK
6
CONTINUOUS
10
139.201
20
-102.206
11
139.152
21
-102.239
0
LINE
8
BLACK
6
CONTINUOUS
10
139.152
20
-102.239
11
139.095
21
-102.25
0
LINE
8
BLACK
6
CONTINUOUS
10
139.095
20
-102.25
11
138.795
21
-102.25
0
LINE
8
BLACK
6
CONTINUOUS
10
138.795
20
-102.25
11
138.738
21
-102.239
0
LINE
8
BLACK
6
CONTINUOUS
10
138.738
20
-102.239
11
138.689
21
-102.206
0
LINE
8
BLACK
6
CONTINUOUS
10
138.689
20
-102.206
11
138.656
21
-102.157
0
LINE
8
BLACK
6
CONTINUOUS
10
138.656
20
-102.157
11
138.645
21
-102.1
0
LINE
8
BLACK
6
CONTINUOUS
10
138.645
20
-102.1
11
138.645
21
-100.8
0
LINE
8
BLACK
6
CONTINUOUS
10
138.645
20
-100.8
11
138.656
21
-100.743
0
LINE
8
BLACK
6
CONTINUOUS
10
138.656
20
-100.743
11
138.689
21
-100.694
0
LINE
8
BLACK
6
CONTINUOUS
10
138.689
20
-100.694
11
138.738
21
-100.661
0
LINE
8
BLACK
6
CONTINUOUS
10
138.738
20
-100.661
11
138.795
21
-100.65
0
LINE
8
BLACK
6
CONTINUOUS
10
138.795
20
-100.65
11
139.095
21
-100.65
0
LINE
8
BLACK
6
CONTINUOUS
10
139.095
20
-100.65
11
139.152
21
-100.661
0
LINE
8
BLACK
6
CONTINUOUS
10
140.422
20
-100.661
11
140.471
21
-100.694
0
LINE
8
BLACK
6
CONTINUOUS
10
140.471
20
-100.694
11
140.504
21
-100.743
0
LINE
8
BLACK
6
CONTINUOUS
10
140.504
20
-100.743
11
140.515
21
-100.8
0
LINE
8
BLACK
6
CONTINUOUS
10
140.515
20
-100.8
11
140.515
21
-102.1
0
LINE
8
BLACK
6
CONTINUOUS
10
140.515
20
-102.1
11
140.504
21
-102.157
0
LINE
8
BLACK
6
CONTINUOUS
10
140.504
20
-102.157
11
140.471
21
-102.206
0
LINE
8
BLACK
6
CONTINUOUS
10
140.471
20
-102.206
11
140.422
21
-102.239
0
LINE
8
BLACK
6
CONTINUOUS
10
140.422
20
-102.239
11
140.365
21
-102.25
0
LINE
8
BLACK
6
CONTINUOUS
10
140.365
20
-102.25
11
140.065
21
-102.25
0
LINE
8
BLACK
6
CONTINUOUS
10
140.065
20
-102.25
11
140.008
21
-102.239
0
LINE
8
BLACK
6
CONTINUOUS
10
140.008
20
-102.239
11
139.959
21
-102.206
0
LINE
8
BLACK
6
CONTINUOUS
10
139.959
20
-102.206
11
139.926
21
-102.157
0
LINE
8
BLACK
6
CONTINUOUS
10
139.926
20
-102.157
11
139.915
21
-102.1
0
LINE
8
BLACK
6
CONTINUOUS
10
139.915
20
-102.1
11
139.915
21
-100.8
0
LINE
8
BLACK
6
CONTINUOUS
10
139.915
20
-100.8
11
139.926
21
-100.743
0
LINE
8
BLACK
6
CONTINUOUS
10
139.926
20
-100.743
11
139.959
21
-100.694
0
LINE
8
BLACK
6
CONTINUOUS
10
139.959
20
-100.694
11
140.008
21
-100.661
0
LINE
8
BLACK
6
CONTINUOUS
10
140.008
20
-100.661
11
140.065
21
-100.65
0
LINE
8
BLACK
6
CONTINUOUS
10
140.065
20
-100.65
11
140.365
21
-100.65
0
LINE
8
BLACK
6
CONTINUOUS
10
140.365
20
-100.65
11
140.422
21
-100.661
0
LINE
8
BLACK
6
CONTINUOUS
10
141.692
20
-100.661
11
141.741
21
-100.694
0
LINE
8
BLACK
6
CONTINUOUS
10
141.741
20
-100.694
11
141.774
21
-100.743
0
LINE
8
BLACK
6
CONTINUOUS
10
141.774
20
-100.743
11
141.785
21
-100.8
0
LINE
8
BLACK
6
CONTINUOUS
10
141.785
20
-100.8
11
141.785
21
-102.1
0
LINE
8
BLACK
6
CONTINUOUS
10
141.785
20
-102.1
11
141.774
21
-102.157
0
LINE
8
BLACK
6
CONTINUOUS
10
141.774
20
-102.157
11
141.741
21
-102.206
0
LINE
8
BLACK
6
CONTINUOUS
10
141.741
20
-102.206
11
141.692
21
-102.239
0
LINE
8
BLACK
6
CONTINUOUS
10
141.692
20
-102.239
11
141.635
21
-102.25
0
LINE
8
BLACK
6
CONTINUOUS
10
141.635
20
-102.25
11
141.335
21
-102.25
0
LINE
8
BLACK
6
CONTINUOUS
10
141.335
20
-102.25
11
141.278
21
-102.239
0
LINE
8
BLACK
6
CONTINUOUS
10
141.278
20
-102.239
11
141.229
21
-102.206
0
LINE
8
BLACK
6
CONTINUOUS
10
141.229
20
-102.206
11
141.196
21
-102.157
0
LINE
8
BLACK
6
CONTINUOUS
10
141.196
20
-102.157
11
141.185
21
-102.1
0
LINE
8
BLACK
6
CONTINUOUS
10
141.185
20
-102.1
11
141.185
21
-100.8
0
LINE
8
BLACK
6
CONTINUOUS
10
141.185
20
-100.8
11
141.196
21
-100.743
0
LINE
8
BLACK
6
CONTINUOUS
10
141.196
20
-100.743
11
141.229
21
-100.694
0
LINE
8
BLACK
6
CONTINUOUS
10
141.229
20
-100.694
11
141.278
21
-100.661
0
LINE
8
BLACK
6
CONTINUOUS
10
141.278
20
-100.661
11
141.335
21
-100.65
0
LINE
8
BLACK
6
CONTINUOUS
10
141.335
20
-100.65
11
141.635
21
-100.65
0
LINE
8
BLACK
6
CONTINUOUS
10
141.635
20
-100.65
11
141.692
21
-100.661
0
LINE
8
BLACK
6
CONTINUOUS
10
142.962
20
-100.661
11
143.011
21
-100.694
0
LINE
8
BLACK
6
CONTINUOUS
10
143.011
20
-100.694
11
143.044
21
-100.743
0
LINE
8
BLACK
6
CONTINUOUS
10
143.044
20
-100.743
11
143.055
21
-100.8
0
LINE
8
BLACK
6
CONTINUOUS
10
143.055
20
-100.8
11
143.055
21
-102.1
0
LINE
8
BLACK
6
CONTINUOUS
10
143.055
20
-102.1
11
143.044
21
-102.157
0
LINE
8
BLACK
6
CONTINUOUS
10
143.044
20
-102.157
11
143.011
21
-102.206
0
LINE
8
BLACK
6
CONTINUOUS
10
143.011
20
-102.206
11
142.962
21
-102.239
0
LINE
8
BLACK
6
CONTINUOUS
10
142.962
20
-102.239
11
142.905
21
-102.25
0
LINE
8
BLACK
6
CONTINUOUS
10
142.905
20
-102.25
11
142.605
21
-102.25
0
LINE
8
BLACK
6
CONTINUOUS
10
142.605
20
-102.25
11
142.548
21
-102.239
0
LINE
8
BLACK
6
CONTINUOUS
10
142.548
20
-102.239
11
142.499
21
-102.206
0
LINE
8
BLACK
6
CONTINUOUS
10
142.499
20
-102.206
11
142.466
21
-102.157
0
LINE
8
BLACK
6
CONTINUOUS
10
142.466
20
-102.157
11
142.455
21
-102.1
0
LINE
8
BLACK
6
CONTINUOUS
10
142.455
20
-102.1
11
142.455
21
-100.8
0
LINE
8
BLACK
6
CONTINUOUS
10
142.455
20
-100.8
11
142.466
21
-100.743
0
LINE
8
BLACK
6
CONTINUOUS
10
142.466
20
-100.743
11
142.499
21
-100.694
0
LINE
8
BLACK
6
CONTINUOUS
10
142.499
20
-100.694
11
142.548
21
-100.661
0
LINE
8
BLACK
6
CONTINUOUS
10
142.548
20
-100.661
11
142.605
21
-100.65
0
LINE
8
BLACK
6
CONTINUOUS
10
142.605
20
-100.65
11
142.905
21
-100.65
0
LINE
8
BLACK
6
CONTINUOUS
10
142.905
20
-100.65
11
142.962
21
-100.661
0
LINE
8
BLACK
6
CONTINUOUS
10
114.072
20
-101.753
11
114.087
21
-101.763
0
LINE
8
BLACK
6
CONTINUOUS
10
114.087
20
-101.763
11
114.097
21
-101.778
0
LINE
8
BLACK
6
CONTINUOUS
10
114.097
20
-101.778
11
114.1
21
-101.795
0
LINE
8
BLACK
6
CONTINUOUS
10
114.1
20
-101.795
11
114.1
21
-102.155
0
LINE
8
BLACK
6
CONTINUOUS
10
114.1
20
-102.155
11
114.097
21
-102.172
0
LINE
8
BLACK
6
CONTINUOUS
10
114.097
20
-102.172
11
114.087
21
-102.187
0
LINE
8
BLACK
6
CONTINUOUS
10
114.087
20
-102.187
11
114.072
21
-102.197
0
LINE
8
BLACK
6
CONTINUOUS
10
114.072
20
-102.197
11
114.055
21
-102.2
0
LINE
8
BLACK
6
CONTINUOUS
10
114.055
20
-102.2
11
113.445
21
-102.2
0
LINE
8
BLACK
6
CONTINUOUS
10
113.445
20
-102.2
11
113.428
21
-102.197
0
LINE
8
BLACK
6
CONTINUOUS
10
113.428
20
-102.197
11
113.413
21
-102.187
0
LINE
8
BLACK
6
CONTINUOUS
10
113.413
20
-102.187
11
113.403
21
-102.172
0
LINE
8
BLACK
6
CONTINUOUS
10
113.403
20
-102.172
11
113.4
21
-102.155
0
LINE
8
BLACK
6
CONTINUOUS
10
113.4
20
-102.155
11
113.4
21
-101.795
0
LINE
8
BLACK
6
CONTINUOUS
10
113.4
20
-101.795
11
113.403
21
-101.778
0
LINE
8
BLACK
6
CONTINUOUS
10
113.403
20
-101.778
11
113.413
21
-101.763
0
LINE
8
BLACK
6
CONTINUOUS
10
113.413
20
-101.763
11
113.428
21
-101.753
0
LINE
8
BLACK
6
CONTINUOUS
10
113.428
20
-101.753
11
113.445
21
-101.75
0
LINE
8
BLACK
6
CONTINUOUS
10
113.445
20
-101.75
11
114.055
21
-101.75
0
LINE
8
BLACK
6
CONTINUOUS
10
114.055
20
-101.75
11
114.072
21
-101.753
0
LINE
8
BLACK
6
CONTINUOUS
10
119.382
20
-101.261
11
119.431
21
-101.294
0
LINE
8
BLACK
6
CONTINUOUS
10
119.431
20
-101.294
11
119.464
21
-101.343
0
LINE
8
BLACK
6
CONTINUOUS
10
119.464
20
-101.343
11
119.475
21
-101.4
0
LINE
8
BLACK
6
CONTINUOUS
10
119.475
20
-101.4
11
119.475
21
-101.7
0
LINE
8
BLACK
6
CONTINUOUS
10
119.475
20
-101.7
11
119.464
21
-101.757
0
LINE
8
BLACK
6
CONTINUOUS
10
119.464
20
-101.757
11
119.431
21
-101.806
0
LINE
8
BLACK
6
CONTINUOUS
10
119.431
20
-101.806
11
119.382
21
-101.839
0
LINE
8
BLACK
6
CONTINUOUS
10
119.382
20
-101.839
11
119.325
21
-101.85
0
LINE
8
BLACK
6
CONTINUOUS
10
119.325
20
-101.85
11
118.15
21
-101.85
0
LINE
8
BLACK
6
CONTINUOUS
10
118.15
20
-101.85
11
118.093
21
-101.839
0
LINE
8
BLACK
6
CONTINUOUS
10
118.093
20
-101.839
11
118.044
21
-101.806
0
LINE
8
BLACK
6
CONTINUOUS
10
118.044
20
-101.806
11
118.011
21
-101.757
0
LINE
8
BLACK
6
CONTINUOUS
10
118.011
20
-101.757
11
118
21
-101.7
0
LINE
8
BLACK
6
CONTINUOUS
10
118
20
-101.7
11
118
21
-101.4
0
LINE
8
BLACK
6
CONTINUOUS
10
118
20
-101.4
11
118.011
21
-101.343
0
LINE
8
BLACK
6
CONTINUOUS
10
118.011
20
-101.343
11
118.044
21
-101.294
0
LINE
8
BLACK
6
CONTINUOUS
10
118.044
20
-101.294
11
118.093
21
-101.261
0
LINE
8
BLACK
6
CONTINUOUS
10
118.093
20
-101.261
11
118.15
21
-101.25
0
LINE
8
BLACK
6
CONTINUOUS
10
118.15
20
-101.25
11
119.325
21
-101.25
0
LINE
8
BLACK
6
CONTINUOUS
10
119.325
20
-101.25
11
119.382
21
-101.261
0
LINE
8
BLACK
6
CONTINUOUS
10
130.719
20
-100.904
11
130.735
21
-100.915
0
LINE
8
BLACK
6
CONTINUOUS
10
130.735
20
-100.915
11
130.746
21
-100.931
0
LINE
8
BLACK
6
CONTINUOUS
10
130.746
20
-100.931
11
130.75
21
-100.95
0
LINE
8
BLACK
6
CONTINUOUS
10
130.75
20
-100.95
11
130.75
21
-101.725
0
LINE
8
BLACK
6
CONTINUOUS
10
130.75
20
-101.725
11
130.746
21
-101.744
0
LINE
8
BLACK
6
CONTINUOUS
10
130.746
20
-101.744
11
130.735
21
-101.76
0
LINE
8
BLACK
6
CONTINUOUS
10
130.735
20
-101.76
11
130.719
21
-101.771
0
LINE
8
BLACK
6
CONTINUOUS
10
130.719
20
-101.771
11
130.7
21
-101.775
0
LINE
8
BLACK
6
CONTINUOUS
10
130.7
20
-101.775
11
130.6
21
-101.775
0
LINE
8
BLACK
6
CONTINUOUS
10
130.6
20
-101.775
11
130.581
21
-101.771
0
LINE
8
BLACK
6
CONTINUOUS
10
130.581
20
-101.771
11
130.565
21
-101.76
0
LINE
8
BLACK
6
CONTINUOUS
10
130.565
20
-101.76
11
130.554
21
-101.744
0
LINE
8
BLACK
6
CONTINUOUS
10
130.554
20
-101.744
11
130.55
21
-101.725
0
LINE
8
BLACK
6
CONTINUOUS
10
130.55
20
-101.725
11
130.55
21
-100.95
0
LINE
8
BLACK
6
CONTINUOUS
10
130.55
20
-100.95
11
130.554
21
-100.931
0
LINE
8
BLACK
6
CONTINUOUS
10
130.554
20
-100.931
11
130.565
21
-100.915
0
LINE
8
BLACK
6
CONTINUOUS
10
130.565
20
-100.915
11
130.581
21
-100.904
0
LINE
8
BLACK
6
CONTINUOUS
10
130.581
20
-100.904
11
130.6
21
-100.9
0
LINE
8
BLACK
6
CONTINUOUS
10
130.6
20
-100.9
11
130.7
21
-100.9
0
LINE
8
BLACK
6
CONTINUOUS
10
130.7
20
-100.9
11
130.719
21
-100.904
0
LINE
8
BLACK
6
CONTINUOUS
10
133.519
20
-100.904
11
133.535
21
-100.915
0
LINE
8
BLACK
6
CONTINUOUS
10
133.535
20
-100.915
11
133.546
21
-100.931
0
LINE
8
BLACK
6
CONTINUOUS
10
133.546
20
-100.931
11
133.55
21
-100.95
0
LINE
8
BLACK
6
CONTINUOUS
10
133.55
20
-100.95
11
133.55
21
-101.725
0
LINE
8
BLACK
6
CONTINUOUS
10
133.55
20
-101.725
11
133.546
21
-101.744
0
LINE
8
BLACK
6
CONTINUOUS
10
133.546
20
-101.744
11
133.535
21
-101.76
0
LINE
8
BLACK
6
CONTINUOUS
10
133.535
20
-101.76
11
133.519
21
-101.771
0
LINE
8
BLACK
6
CONTINUOUS
10
133.519
20
-101.771
11
133.5
21
-101.775
0
LINE
8
BLACK
6
CONTINUOUS
10
133.5
20
-101.775
11
133.4
21
-101.775
0
LINE
8
BLACK
6
CONTINUOUS
10
133.4
20
-101.775
11
133.381
21
-101.771
0
LINE
8
BLACK
6
CONTINUOUS
10
133.381
20
-101.771
11
133.365
21
-101.76
0
LINE
8
BLACK
6
CONTINUOUS
10
133.365
20
-101.76
11
133.354
21
-101.744
0
LINE
8
BLACK
6
CONTINUOUS
10
133.354
20
-101.744
11
133.35
21
-101.725
0
LINE
8
BLACK
6
CONTINUOUS
10
133.35
20
-101.725
11
133.35
21
-100.95
0
LINE
8
BLACK
6
CONTINUOUS
10
133.35
20
-100.95
11
133.354
21
-100.931
0
LINE
8
BLACK
6
CONTINUOUS
10
133.354
20
-100.931
11
133.365
21
-100.915
0
LINE
8
BLACK
6
CONTINUOUS
10
133.365
20
-100.915
11
133.381
21
-100.904
0
LINE
8
BLACK
6
CONTINUOUS
10
133.381
20
-100.904
11
133.4
21
-100.9
0
LINE
8
BLACK
6
CONTINUOUS
10
133.4
20
-100.9
11
133.5
21
-100.9
0
LINE
8
BLACK
6
CONTINUOUS
10
133.5
20
-100.9
11
133.519
21
-100.904
0
LINE
8
BLACK
6
CONTINUOUS
10
133.119
20
-100.904
11
133.135
21
-100.915
0
LINE
8
BLACK
6
CONTINUOUS
10
133.135
20
-100.915
11
133.146
21
-100.931
0
LINE
8
BLACK
6
CONTINUOUS
10
133.146
20
-100.931
11
133.15
21
-100.95
0
LINE
8
BLACK
6
CONTINUOUS
10
133.15
20
-100.95
11
133.15
21
-101.725
0
LINE
8
BLACK
6
CONTINUOUS
10
133.15
20
-101.725
11
133.146
21
-101.744
0
LINE
8
BLACK
6
CONTINUOUS
10
133.146
20
-101.744
11
133.135
21
-101.76
0
LINE
8
BLACK
6
CONTINUOUS
10
133.135
20
-101.76
11
133.119
21
-101.771
0
LINE
8
BLACK
6
CONTINUOUS
10
133.119
20
-101.771
11
133.1
21
-101.775
0
LINE
8
BLACK
6
CONTINUOUS
10
133.1
20
-101.775
11
133
21
-101.775
0
LINE
8
BLACK
6
CONTINUOUS
10
133
20
-101.775
11
132.981
21
-101.771
0
LINE
8
BLACK
6
CONTINUOUS
10
132.981
20
-101.771
11
132.965
21
-101.76
0
LINE
8
BLACK
6
CONTINUOUS
10
132.965
20
-101.76
11
132.954
21
-101.744
0
LINE
8
BLACK
6
CONTINUOUS
10
132.954
20
-101.744
11
132.95
21
-101.725
0
LINE
8
BLACK
6
CONTINUOUS
10
132.95
20
-101.725
11
132.95
21
-100.95
0
LINE
8
BLACK
6
CONTINUOUS
10
132.95
20
-100.95
11
132.954
21
-100.931
0
LINE
8
BLACK
6
CONTINUOUS
10
132.954
20
-100.931
11
132.965
21
-100.915
0
LINE
8
BLACK
6
CONTINUOUS
10
132.965
20
-100.915
11
132.981
21
-100.904
0
LINE
8
BLACK
6
CONTINUOUS
10
132.981
20
-100.904
11
133
21
-100.9
0
LINE
8
BLACK
6
CONTINUOUS
10
133
20
-100.9
11
133.1
21
-100.9
0
LINE
8
BLACK
6
CONTINUOUS
10
133.1
20
-100.9
11
133.119
21
-100.904
0
LINE
8
BLACK
6
CONTINUOUS
10
134.719
20
-100.904
11
134.735
21
-100.915
0
LINE
8
BLACK
6
CONTINUOUS
10
134.735
20
-100.915
11
134.746
21
-100.931
0
LINE
8
BLACK
6
CONTINUOUS
10
134.746
20
-100.931
11
134.75
21
-100.95
0
LINE
8
BLACK
6
CONTINUOUS
10
134.75
20
-100.95
11
134.75
21
-101.725
0
LINE
8
BLACK
6
CONTINUOUS
10
134.75
20
-101.725
11
134.746
21
-101.744
0
LINE
8
BLACK
6
CONTINUOUS
10
134.746
20
-101.744
11
134.735
21
-101.76
0
LINE
8
BLACK
6
CONTINUOUS
10
134.735
20
-101.76
11
134.719
21
-101.771
0
LINE
8
BLACK
6
CONTINUOUS
10
134.719
20
-101.771
11
134.7
21
-101.775
0
LINE
8
BLACK
6
CONTINUOUS
10
134.7
20
-101.775
11
134.6
21
-101.775
0
LINE
8
BLACK
6
CONTINUOUS
10
134.6
20
-101.775
11
134.581
21
-101.771
0
LINE
8
BLACK
6
CONTINUOUS
10
134.581
20
-101.771
11
134.565
21
-101.76
0
LINE
8
BLACK
6
CONTINUOUS
10
134.565
20
-101.76
11
134.554
21
-101.744
0
LINE
8
BLACK
6
CONTINUOUS
10
134.554
20
-101.744
11
134.55
21
-101.725
0
LINE
8
BLACK
6
CONTINUOUS
10
134.55
20
-101.725
11
134.55
21
-100.95
0
LINE
8
BLACK
6
CONTINUOUS
10
134.55
20
-100.95
11
134.554
21
-100.931
0
LINE
8
BLACK
6
CONTINUOUS
10
134.554
20
-100.931
11
134.565
21
-100.915
0
LINE
8
BLACK
6
CONTINUOUS
10
134.565
20
-100.915
11
134.581
21
-100.904
0
LINE
8
BLACK
6
CONTINUOUS
10
134.581
20
-100.904
11
134.6
21
-100.9
0
LINE
8
BLACK
6
CONTINUOUS
10
134.6
20
-100.9
11
134.7
21
-100.9
0
LINE
8
BLACK
6
CONTINUOUS
10
134.7
20
-100.9
11
134.719
21
-100.904
0
LINE
8
BLACK
6
CONTINUOUS
10
134.319
20
-100.904
11
134.335
21
-100.915
0
LINE
8
BLACK
6
CONTINUOUS
10
134.335
20
-100.915
11
134.346
21
-100.931
0
LINE
8
BLACK
6
CONTINUOUS
10
134.346
20
-100.931
11
134.35
21
-100.95
0
LINE
8
BLACK
6
CONTINUOUS
10
134.35
20
-100.95
11
134.35
21
-101.725
0
LINE
8
BLACK
6
CONTINUOUS
10
134.35
20
-101.725
11
134.346
21
-101.744
0
LINE
8
BLACK
6
CONTINUOUS
10
134.346
20
-101.744
11
134.335
21
-101.76
0
LINE
8
BLACK
6
CONTINUOUS
10
134.335
20
-101.76
11
134.319
21
-101.771
0
LINE
8
BLACK
6
CONTINUOUS
10
134.319
20
-101.771
11
134.3
21
-101.775
0
LINE
8
BLACK
6
CONTINUOUS
10
134.3
20
-101.775
11
134.2
21
-101.775
0
LINE
8
BLACK
6
CONTINUOUS
10
134.2
20
-101.775
11
134.181
21
-101.771
0
LINE
8
BLACK
6
CONTINUOUS
10
134.181
20
-101.771
11
134.165
21
-101.76
0
LINE
8
BLACK
6
CONTINUOUS
10
134.165
20
-101.76
11
134.154
21
-101.744
0
LINE
8
BLACK
6
CONTINUOUS
10
134.154
20
-101.744
11
134.15
21
-101.725
0
LINE
8
BLACK
6
CONTINUOUS
10
134.15
20
-101.725
11
134.15
21
-100.95
0
LINE
8
BLACK
6
CONTINUOUS
10
134.15
20
-100.95
11
134.154
21
-100.931
0
LINE
8
BLACK
6
CONTINUOUS
10
134.154
20
-100.931
11
134.165
21
-100.915
0
LINE
8
BLACK
6
CONTINUOUS
10
134.165
20
-100.915
11
134.181
21
-100.904
0
LINE
8
BLACK
6
CONTINUOUS
10
134.181
20
-100.904
11
134.2
21
-100.9
0
LINE
8
BLACK
6
CONTINUOUS
10
134.2
20
-100.9
11
134.3
21
-100.9
0
LINE
8
BLACK
6
CONTINUOUS
10
134.3
20
-100.9
11
134.319
21
-100.904
0
LINE
8
BLACK
6
CONTINUOUS
10
132.719
20
-100.904
11
132.735
21
-100.915
0
LINE
8
BLACK
6
CONTINUOUS
10
132.735
20
-100.915
11
132.746
21
-100.931
0
LINE
8
BLACK
6
CONTINUOUS
10
132.746
20
-100.931
11
132.75
21
-100.95
0
LINE
8
BLACK
6
CONTINUOUS
10
132.75
20
-100.95
11
132.75
21
-101.725
0
LINE
8
BLACK
6
CONTINUOUS
10
132.75
20
-101.725
11
132.746
21
-101.744
0
LINE
8
BLACK
6
CONTINUOUS
10
132.746
20
-101.744
11
132.735
21
-101.76
0
LINE
8
BLACK
6
CONTINUOUS
10
132.735
20
-101.76
11
132.719
21
-101.771
0
LINE
8
BLACK
6
CONTINUOUS
10
132.719
20
-101.771
11
132.7
21
-101.775
0
LINE
8
BLACK
6
CONTINUOUS
10
132.7
20
-101.775
11
132.6
21
-101.775
0
LINE
8
BLACK
6
CONTINUOUS
10
132.6
20
-101.775
11
132.581
21
-101.771
0
LINE
8
BLACK
6
CONTINUOUS
10
132.581
20
-101.771
11
132.565
21
-101.76
0
LINE
8
BLACK
6
CONTINUOUS
10
132.565
20
-101.76
11
132.554
21
-101.744
0
LINE
8
BLACK
6
CONTINUOUS
10
132.554
20
-101.744
11
132.55
21
-101.725
0
LINE
8
BLACK
6
CONTINUOUS
10
132.55
20
-101.725
11
132.55
21
-100.95
0
LINE
8
BLACK
6
CONTINUOUS
10
132.55
20
-100.95
11
132.554
21
-100.931
0
LINE
8
BLACK
6
CONTINUOUS
10
132.554
20
-100.931
11
132.565
21
-100.915
0
LINE
8
BLACK
6
CONTINUOUS
10
132.565
20
-100.915
11
132.581
21
-100.904
0
LINE
8
BLACK
6
CONTINUOUS
10
132.581
20
-100.904
11
132.6
21
-100.9
0
LINE
8
BLACK
6
CONTINUOUS
10
132.6
20
-100.9
11
132.7
21
-100.9
0
LINE
8
BLACK
6
CONTINUOUS
10
132.7
20
-100.9
11
132.719
21
-100.904
0
LINE
8
BLACK
6
CONTINUOUS
10
133.919
20
-100.904
11
133.935
21
-100.915
0
LINE
8
BLACK
6
CONTINUOUS
10
133.935
20
-100.915
11
133.946
21
-100.931
0
LINE
8
BLACK
6
CONTINUOUS
10
133.946
20
-100.931
11
133.95
21
-100.95
0
LINE
8
BLACK
6
CONTINUOUS
10
133.95
20
-100.95
11
133.95
21
-101.725
0
LINE
8
BLACK
6
CONTINUOUS
10
133.95
20
-101.725
11
133.946
21
-101.744
0
LINE
8
BLACK
6
CONTINUOUS
10
133.946
20
-101.744
11
133.935
21
-101.76
0
LINE
8
BLACK
6
CONTINUOUS
10
133.935
20
-101.76
11
133.919
21
-101.771
0
LINE
8
BLACK
6
CONTINUOUS
10
133.919
20
-101.771
11
133.9
21
-101.775
0
LINE
8
BLACK
6
CONTINUOUS
10
133.9
20
-101.775
11
133.8
21
-101.775
0
LINE
8
BLACK
6
CONTINUOUS
10
133.8
20
-101.775
11
133.781
21
-101.771
0
LINE
8
BLACK
6
CONTINUOUS
10
133.781
20
-101.771
11
133.765
21
-101.76
0
LINE
8
BLACK
6
CONTINUOUS
10
133.765
20
-101.76
11
133.754
21
-101.744
0
LINE
8
BLACK
6
CONTINUOUS
10
133.754
20
-101.744
11
133.75
21
-101.725
0
LINE
8
BLACK
6
CONTINUOUS
10
133.75
20
-101.725
11
133.75
21
-100.95
0
LINE
8
BLACK
6
CONTINUOUS
10
133.75
20
-100.95
11
133.754
21
-100.931
0
LINE
8
BLACK
6
CONTINUOUS
10
133.754
20
-100.931
11
133.765
21
-100.915
0
LINE
8
BLACK
6
CONTINUOUS
10
133.765
20
-100.915
11
133.781
21
-100.904
0
LINE
8
BLACK
6
CONTINUOUS
10
133.781
20
-100.904
11
133.8
21
-100.9
0
LINE
8
BLACK
6
CONTINUOUS
10
133.8
20
-100.9
11
133.9
21
-100.9
0
LINE
8
BLACK
6
CONTINUOUS
10
133.9
20
-100.9
11
133.919
21
-100.904
0
LINE
8
BLACK
6
CONTINUOUS
10
129.519
20
-100.904
11
129.535
21
-100.915
0
LINE
8
BLACK
6
CONTINUOUS
10
129.535
20
-100.915
11
129.546
21
-100.931
0
LINE
8
BLACK
6
CONTINUOUS
10
129.546
20
-100.931
11
129.55
21
-100.95
0
LINE
8
BLACK
6
CONTINUOUS
10
129.55
20
-100.95
11
129.55
21
-101.725
0
LINE
8
BLACK
6
CONTINUOUS
10
129.55
20
-101.725
11
129.546
21
-101.744
0
LINE
8
BLACK
6
CONTINUOUS
10
129.546
20
-101.744
11
129.535
21
-101.76
0
LINE
8
BLACK
6
CONTINUOUS
10
129.535
20
-101.76
11
129.519
21
-101.771
0
LINE
8
BLACK
6
CONTINUOUS
10
129.519
20
-101.771
11
129.5
21
-101.775
0
LINE
8
BLACK
6
CONTINUOUS
10
129.5
20
-101.775
11
129.4
21
-101.775
0
LINE
8
BLACK
6
CONTINUOUS
10
129.4
20
-101.775
11
129.381
21
-101.771
0
LINE
8
BLACK
6
CONTINUOUS
10
129.381
20
-101.771
11
129.365
21
-101.76
0
LINE
8
BLACK
6
CONTINUOUS
10
129.365
20
-101.76
11
129.354
21
-101.744
0
LINE
8
BLACK
6
CONTINUOUS
10
129.354
20
-101.744
11
129.35
21
-101.725
0
LINE
8
BLACK
6
CONTINUOUS
10
129.35
20
-101.725
11
129.35
21
-100.95
0
LINE
8
BLACK
6
CONTINUOUS
10
129.35
20
-100.95
11
129.354
21
-100.931
0
LINE
8
BLACK
6
CONTINUOUS
10
129.354
20
-100.931
11
129.365
21
-100.915
0
LINE
8
BLACK
6
CONTINUOUS
10
129.365
20
-100.915
11
129.381
21
-100.904
0
LINE
8
BLACK
6
CONTINUOUS
10
129.381
20
-100.904
11
129.4
21
-100.9
0
LINE
8
BLACK
6
CONTINUOUS
10
129.4
20
-100.9
11
129.5
21
-100.9
0
LINE
8
BLACK
6
CONTINUOUS
10
129.5
20
-100.9
11
129.519
21
-100.904
0
LINE
8
BLACK
6
CONTINUOUS
10
129.919
20
-100.904
11
129.935
21
-100.915
0
LINE
8
BLACK
6
CONTINUOUS
10
129.935
20
-100.915
11
129.946
21
-100.931
0
LINE
8
BLACK
6
CONTINUOUS
10
129.946
20
-100.931
11
129.95
21
-100.95
0
LINE
8
BLACK
6
CONTINUOUS
10
129.95
20
-100.95
11
129.95
21
-101.725
0
LINE
8
BLACK
6
CONTINUOUS
10
129.95
20
-101.725
11
129.946
21
-101.744
0
LINE
8
BLACK
6
CONTINUOUS
10
129.946
20
-101.744
11
129.935
21
-101.76
0
LINE
8
BLACK
6
CONTINUOUS
10
129.935
20
-101.76
11
129.919
21
-101.771
0
LINE
8
BLACK
6
CONTINUOUS
10
129.919
20
-101.771
11
129.9
21
-101.775
0
LINE
8
BLACK
6
CONTINUOUS
10
129.9
20
-101.775
11
129.8
21
-101.775
0
LINE
8
BLACK
6
CONTINUOUS
10
129.8
20
-101.775
11
129.781
21
-101.771
0
LINE
8
BLACK
6
CONTINUOUS
10
129.781
20
-101.771
11
129.765
21
-101.76
0
LINE
8
BLACK
6
CONTINUOUS
10
129.765
20
-101.76
11
129.754
21
-101.744
0
LINE
8
BLACK
6
CONTINUOUS
10
129.754
20
-101.744
11
129.75
21
-101.725
0
LINE
8
BLACK
6
CONTINUOUS
10
129.75
20
-101.725
11
129.75
21
-100.95
0
LINE
8
BLACK
6
CONTINUOUS
10
129.75
20
-100.95
11
129.754
21
-100.931
0
LINE
8
BLACK
6
CONTINUOUS
10
129.754
20
-100.931
11
129.765
21
-100.915
0
LINE
8
BLACK
6
CONTINUOUS
10
129.765
20
-100.915
11
129.781
21
-100.904
0
LINE
8
BLACK
6
CONTINUOUS
10
129.781
20
-100.904
11
129.8
21
-100.9
0
LINE
8
BLACK
6
CONTINUOUS
10
129.8
20
-100.9
11
129.9
21
-100.9
0
LINE
8
BLACK
6
CONTINUOUS
10
129.9
20
-100.9
11
129.919
21
-100.904
0
LINE
8
BLACK
6
CONTINUOUS
10
132.319
20
-100.904
11
132.335
21
-100.915
0
LINE
8
BLACK
6
CONTINUOUS
10
132.335
20
-100.915
11
132.346
21
-100.931
0
LINE
8
BLACK
6
CONTINUOUS
10
132.346
20
-100.931
11
132.35
21
-100.95
0
LINE
8
BLACK
6
CONTINUOUS
10
132.35
20
-100.95
11
132.35
21
-101.725
0
LINE
8
BLACK
6
CONTINUOUS
10
132.35
20
-101.725
11
132.346
21
-101.744
0
LINE
8
BLACK
6
CONTINUOUS
10
132.346
20
-101.744
11
132.335
21
-101.76
0
LINE
8
BLACK
6
CONTINUOUS
10
132.335
20
-101.76
11
132.319
21
-101.771
0
LINE
8
BLACK
6
CONTINUOUS
10
132.319
20
-101.771
11
132.3
21
-101.775
0
LINE
8
BLACK
6
CONTINUOUS
10
132.3
20
-101.775
11
132.2
21
-101.775
0
LINE
8
BLACK
6
CONTINUOUS
10
132.2
20
-101.775
11
132.181
21
-101.771
0
LINE
8
BLACK
6
CONTINUOUS
10
132.181
20
-101.771
11
132.165
21
-101.76
0
LINE
8
BLACK
6
CONTINUOUS
10
132.165
20
-101.76
11
132.154
21
-101.744
0
LINE
8
BLACK
6
CONTINUOUS
10
132.154
20
-101.744
11
132.15
21
-101.725
0
LINE
8
BLACK
6
CONTINUOUS
10
132.15
20
-101.725
11
132.15
21
-100.95
0
LINE
8
BLACK
6
CONTINUOUS
10
132.15
20
-100.95
11
132.154
21
-100.931
0
LINE
8
BLACK
6
CONTINUOUS
10
132.154
20
-100.931
11
132.165
21
-100.915
0
LINE
8
BLACK
6
CONTINUOUS
10
132.165
20
-100.915
11
132.181
21
-100.904
0
LINE
8
BLACK
6
CONTINUOUS
10
132.181
20
-100.904
11
132.2
21
-100.9
0
LINE
8
BLACK
6
CONTINUOUS
10
132.2
20
-100.9
11
132.3
21
-100.9
0
LINE
8
BLACK
6
CONTINUOUS
10
132.3
20
-100.9
11
132.319
21
-100.904
0
LINE
8
BLACK
6
CONTINUOUS
10
131.919
20
-100.904
11
131.935
21
-100.915
0
LINE
8
BLACK
6
CONTINUOUS
10
131.935
20
-100.915
11
131.946
21
-100.931
0
LINE
8
BLACK
6
CONTINUOUS
10
131.946
20
-100.931
11
131.95
21
-100.95
0
LINE
8
BLACK
6
CONTINUOUS
10
131.95
20
-100.95
11
131.95
21
-101.725
0
LINE
8
BLACK
6
CONTINUOUS
10
131.95
20
-101.725
11
131.946
21
-101.744
0
LINE
8
BLACK
6
CONTINUOUS
10
131.946
20
-101.744
11
131.935
21
-101.76
0
LINE
8
BLACK
6
CONTINUOUS
10
131.935
20
-101.76
11
131.919
21
-101.771
0
LINE
8
BLACK
6
CONTINUOUS
10
131.919
20
-101.771
11
131.9
21
-101.775
0
LINE
8
BLACK
6
CONTINUOUS
10
131.9
20
-101.775
11
131.8
21
-101.775
0
LINE
8
BLACK
6
CONTINUOUS
10
131.8
20
-101.775
11
131.781
21
-101.771
0
LINE
8
BLACK
6
CONTINUOUS
10
131.781
20
-101.771
11
131.765
21
-101.76
0
LINE
8
BLACK
6
CONTINUOUS
10
131.765
20
-101.76
11
131.754
21
-101.744
0
LINE
8
BLACK
6
CONTINUOUS
10
131.754
20
-101.744
11
131.75
21
-101.725
0
LINE
8
BLACK
6
CONTINUOUS
10
131.75
20
-101.725
11
131.75
21
-100.95
0
LINE
8
BLACK
6
CONTINUOUS
10
131.75
20
-100.95
11
131.754
21
-100.931
0
LINE
8
BLACK
6
CONTINUOUS
10
131.754
20
-100.931
11
131.765
21
-100.915
0
LINE
8
BLACK
6
CONTINUOUS
10
131.765
20
-100.915
11
131.781
21
-100.904
0
LINE
8
BLACK
6
CONTINUOUS
10
131.781
20
-100.904
11
131.8
21
-100.9
0
LINE
8
BLACK
6
CONTINUOUS
10
131.8
20
-100.9
11
131.9
21
-100.9
0
LINE
8
BLACK
6
CONTINUOUS
10
131.9
20
-100.9
11
131.919
21
-100.904
0
LINE
8
BLACK
6
CONTINUOUS
10
130.319
20
-100.904
11
130.335
21
-100.915
0
LINE
8
BLACK
6
CONTINUOUS
10
130.335
20
-100.915
11
130.346
21
-100.931
0
LINE
8
BLACK
6
CONTINUOUS
10
130.346
20
-100.931
11
130.35
21
-100.95
0
LINE
8
BLACK
6
CONTINUOUS
10
130.35
20
-100.95
11
130.35
21
-101.725
0
LINE
8
BLACK
6
CONTINUOUS
10
130.35
20
-101.725
11
130.346
21
-101.744
0
LINE
8
BLACK
6
CONTINUOUS
10
130.346
20
-101.744
11
130.335
21
-101.76
0
LINE
8
BLACK
6
CONTINUOUS
10
130.335
20
-101.76
11
130.319
21
-101.771
0
LINE
8
BLACK
6
CONTINUOUS
10
130.319
20
-101.771
11
130.3
21
-101.775
0
LINE
8
BLACK
6
CONTINUOUS
10
130.3
20
-101.775
11
130.2
21
-101.775
0
LINE
8
BLACK
6
CONTINUOUS
10
130.2
20
-101.775
11
130.181
21
-101.771
0
LINE
8
BLACK
6
CONTINUOUS
10
130.181
20
-101.771
11
130.165
21
-101.76
0
LINE
8
BLACK
6
CONTINUOUS
10
130.165
20
-101.76
11
130.154
21
-101.744
0
LINE
8
BLACK
6
CONTINUOUS
10
130.154
20
-101.744
11
130.15
21
-101.725
0
LINE
8
BLACK
6
CONTINUOUS
10
130.15
20
-101.725
11
130.15
21
-100.95
0
LINE
8
BLACK
6
CONTINUOUS
10
130.15
20
-100.95
11
130.154
21
-100.931
0
LINE
8
BLACK
6
CONTINUOUS
10
130.154
20
-100.931
11
130.165
21
-100.915
0
LINE
8
BLACK
6
CONTINUOUS
10
130.165
20
-100.915
11
130.181
21
-100.904
0
LINE
8
BLACK
6
CONTINUOUS
10
130.181
20
-100.904
11
130.2
21
-100.9
0
LINE
8
BLACK
6
CONTINUOUS
10
130.2
20
-100.9
11
130.3
21
-100.9
0
LINE
8
BLACK
6
CONTINUOUS
10
130.3
20
-100.9
11
130.319
21
-100.904
0
LINE
8
BLACK
6
CONTINUOUS
10
131.519
20
-100.904
11
131.535
21
-100.915
0
LINE
8
BLACK
6
CONTINUOUS
10
131.535
20
-100.915
11
131.546
21
-100.931
0
LINE
8
BLACK
6
CONTINUOUS
10
131.546
20
-100.931
11
131.55
21
-100.95
0
LINE
8
BLACK
6
CONTINUOUS
10
131.55
20
-100.95
11
131.55
21
-101.725
0
LINE
8
BLACK
6
CONTINUOUS
10
131.55
20
-101.725
11
131.546
21
-101.744
0
LINE
8
BLACK
6
CONTINUOUS
10
131.546
20
-101.744
11
131.535
21
-101.76
0
LINE
8
BLACK
6
CONTINUOUS
10
131.535
20
-101.76
11
131.519
21
-101.771
0
LINE
8
BLACK
6
CONTINUOUS
10
131.519
20
-101.771
11
131.5
21
-101.775
0
LINE
8
BLACK
6
CONTINUOUS
10
131.5
20
-101.775
11
131.4
21
-101.775
0
LINE
8
BLACK
6
CONTINUOUS
10
131.4
20
-101.775
11
131.381
21
-101.771
0
LINE
8
BLACK
6
CONTINUOUS
10
131.381
20
-101.771
11
131.365
21
-101.76
0
LINE
8
BLACK
6
CONTINUOUS
10
131.365
20
-101.76
11
131.354
21
-101.744
0
LINE
8
BLACK
6
CONTINUOUS
10
131.354
20
-101.744
11
131.35
21
-101.725
0
LINE
8
BLACK
6
CONTINUOUS
10
131.35
20
-101.725
11
131.35
21
-100.95
0
LINE
8
BLACK
6
CONTINUOUS
10
131.35
20
-100.95
11
131.354
21
-100.931
0
LINE
8
BLACK
6
CONTINUOUS
10
131.354
20
-100.931
11
131.365
21
-100.915
0
LINE
8
BLACK
6
CONTINUOUS
10
131.365
20
-100.915
11
131.381
21
-100.904
0
LINE
8
BLACK
6
CONTINUOUS
10
131.381
20
-100.904
11
131.4
21
-100.9
0
LINE
8
BLACK
6
CONTINUOUS
10
131.4
20
-100.9
11
131.5
21
-100.9
0
LINE
8
BLACK
6
CONTINUOUS
10
131.5
20
-100.9
11
131.519
21
-100.904
0
LINE
8
BLACK
6
CONTINUOUS
10
131.119
20
-100.904
11
131.135
21
-100.915
0
LINE
8
BLACK
6
CONTINUOUS
10
131.135
20
-100.915
11
131.146
21
-100.931
0
LINE
8
BLACK
6
CONTINUOUS
10
131.146
20
-100.931
11
131.15
21
-100.95
0
LINE
8
BLACK
6
CONTINUOUS
10
131.15
20
-100.95
11
131.15
21
-101.725
0
LINE
8
BLACK
6
CONTINUOUS
10
131.15
20
-101.725
11
131.146
21
-101.744
0
LINE
8
BLACK
6
CONTINUOUS
10
131.146
20
-101.744
11
131.135
21
-101.76
0
LINE
8
BLACK
6
CONTINUOUS
10
131.135
20
-101.76
11
131.119
21
-101.771
0
LINE
8
BLACK
6
CONTINUOUS
10
131.119
20
-101.771
11
131.1
21
-101.775
0
LINE
8
BLACK
6
CONTINUOUS
10
131.1
20
-101.775
11
131
21
-101.775
0
LINE
8
BLACK
6
CONTINUOUS
10
131
20
-101.775
11
130.981
21
-101.771
0
LINE
8
BLACK
6
CONTINUOUS
10
130.981
20
-101.771
11
130.965
21
-101.76
0
LINE
8
BLACK
6
CONTINUOUS
10
130.965
20
-101.76
11
130.954
21
-101.744
0
LINE
8
BLACK
6
CONTINUOUS
10
130.954
20
-101.744
11
130.95
21
-101.725
0
LINE
8
BLACK
6
CONTINUOUS
10
130.95
20
-101.725
11
130.95
21
-100.95
0
LINE
8
BLACK
6
CONTINUOUS
10
130.95
20
-100.95
11
130.954
21
-100.931
0
LINE
8
BLACK
6
CONTINUOUS
10
130.954
20
-100.931
11
130.965
21
-100.915
0
LINE
8
BLACK
6
CONTINUOUS
10
130.965
20
-100.915
11
130.981
21
-100.904
0
LINE
8
BLACK
6
CONTINUOUS
10
130.981
20
-100.904
11
131
21
-100.9
0
LINE
8
BLACK
6
CONTINUOUS
10
131
20
-100.9
11
131.1
21
-100.9
0
LINE
8
BLACK
6
CONTINUOUS
10
131.1
20
-100.9
11
131.119
21
-100.904
0
LINE
8
BLACK
6
CONTINUOUS
10
120.402
20
-101.173
11
120.417
21
-101.183
0
LINE
8
BLACK
6
CONTINUOUS
10
120.417
20
-101.183
11
120.427
21
-101.198
0
LINE
8
BLACK
6
CONTINUOUS
10
120.427
20
-101.198
11
120.43
21
-101.215
0
LINE
8
BLACK
6
CONTINUOUS
10
120.43
20
-101.215
11
120.43
21
-101.485
0
LINE
8
BLACK
6
CONTINUOUS
10
120.43
20
-101.485
11
120.427
21
-101.502
0
LINE
8
BLACK
6
CONTINUOUS
10
120.427
20
-101.502
11
120.417
21
-101.517
0
LINE
8
BLACK
6
CONTINUOUS
10
120.417
20
-101.517
11
120.402
21
-101.527
0
LINE
8
BLACK
6
CONTINUOUS
10
120.402
20
-101.527
11
120.385
21
-101.53
0
LINE
8
BLACK
6
CONTINUOUS
10
120.385
20
-101.53
11
120.015
21
-101.53
0
LINE
8
BLACK
6
CONTINUOUS
10
120.015
20
-101.53
11
119.998
21
-101.527
0
LINE
8
BLACK
6
CONTINUOUS
10
119.998
20
-101.527
11
119.983
21
-101.517
0
LINE
8
BLACK
6
CONTINUOUS
10
119.983
20
-101.517
11
119.973
21
-101.502
0
LINE
8
BLACK
6
CONTINUOUS
10
119.973
20
-101.502
11
119.97
21
-101.485
0
LINE
8
BLACK
6
CONTINUOUS
10
119.97
20
-101.485
11
119.97
21
-101.215
0
LINE
8
BLACK
6
CONTINUOUS
10
119.97
20
-101.215
11
119.973
21
-101.198
0
LINE
8
BLACK
6
CONTINUOUS
10
119.973
20
-101.198
11
119.983
21
-101.183
0
LINE
8
BLACK
6
CONTINUOUS
10
119.983
20
-101.183
11
119.998
21
-101.173
0
LINE
8
BLACK
6
CONTINUOUS
10
119.998
20
-101.173
11
120.015
21
-101.17
0
LINE
8
BLACK
6
CONTINUOUS
10
120.015
20
-101.17
11
120.385
21
-101.17
0
LINE
8
BLACK
6
CONTINUOUS
10
120.385
20
-101.17
11
120.402
21
-101.173
0
LINE
8
BLACK
6
CONTINUOUS
10
122.902
20
-101.173
11
122.917
21
-101.183
0
LINE
8
BLACK
6
CONTINUOUS
10
122.917
20
-101.183
11
122.927
21
-101.198
0
LINE
8
BLACK
6
CONTINUOUS
10
122.927
20
-101.198
11
122.93
21
-101.215
0
LINE
8
BLACK
6
CONTINUOUS
10
122.93
20
-101.215
11
122.93
21
-101.485
0
LINE
8
BLACK
6
CONTINUOUS
10
122.93
20
-101.485
11
122.927
21
-101.502
0
LINE
8
BLACK
6
CONTINUOUS
10
122.927
20
-101.502
11
122.917
21
-101.517
0
LINE
8
BLACK
6
CONTINUOUS
10
122.917
20
-101.517
11
122.902
21
-101.527
0
LINE
8
BLACK
6
CONTINUOUS
10
122.902
20
-101.527
11
122.885
21
-101.53
0
LINE
8
BLACK
6
CONTINUOUS
10
122.885
20
-101.53
11
122.515
21
-101.53
0
LINE
8
BLACK
6
CONTINUOUS
10
122.515
20
-101.53
11
122.498
21
-101.527
0
LINE
8
BLACK
6
CONTINUOUS
10
122.498
20
-101.527
11
122.483
21
-101.517
0
LINE
8
BLACK
6
CONTINUOUS
10
122.483
20
-101.517
11
122.473
21
-101.502
0
LINE
8
BLACK
6
CONTINUOUS
10
122.473
20
-101.502
11
122.47
21
-101.485
0
LINE
8
BLACK
6
CONTINUOUS
10
122.47
20
-101.485
11
122.47
21
-101.215
0
LINE
8
BLACK
6
CONTINUOUS
10
122.47
20
-101.215
11
122.473
21
-101.198
0
LINE
8
BLACK
6
CONTINUOUS
10
122.473
20
-101.198
11
122.483
21
-101.183
0
LINE
8
BLACK
6
CONTINUOUS
10
122.483
20
-101.183
11
122.498
21
-101.173
0
LINE
8
BLACK
6
CONTINUOUS
10
122.498
20
-101.173
11
122.515
21
-101.17
0
LINE
8
BLACK
6
CONTINUOUS
10
122.515
20
-101.17
11
122.885
21
-101.17
0
LINE
8
BLACK
6
CONTINUOUS
10
122.885
20
-101.17
11
122.902
21
-101.173
0
LINE
8
BLACK
6
CONTINUOUS
10
121.102
20
-101.173
11
121.117
21
-101.183
0
LINE
8
BLACK
6
CONTINUOUS
10
121.117
20
-101.183
11
121.127
21
-101.198
0
LINE
8
BLACK
6
CONTINUOUS
10
121.127
20
-101.198
11
121.13
21
-101.215
0
LINE
8
BLACK
6
CONTINUOUS
10
121.13
20
-101.215
11
121.13
21
-101.485
0
LINE
8
BLACK
6
CONTINUOUS
10
121.13
20
-101.485
11
121.127
21
-101.502
0
LINE
8
BLACK
6
CONTINUOUS
10
121.127
20
-101.502
11
121.117
21
-101.517
0
LINE
8
BLACK
6
CONTINUOUS
10
121.117
20
-101.517
11
121.102
21
-101.527
0
LINE
8
BLACK
6
CONTINUOUS
10
121.102
20
-101.527
11
121.085
21
-101.53
0
LINE
8
BLACK
6
CONTINUOUS
10
121.085
20
-101.53
11
120.715
21
-101.53
0
LINE
8
BLACK
6
CONTINUOUS
10
120.715
20
-101.53
11
120.698
21
-101.527
0
LINE
8
BLACK
6
CONTINUOUS
10
120.698
20
-101.527
11
120.683
21
-101.517
0
LINE
8
BLACK
6
CONTINUOUS
10
120.683
20
-101.517
11
120.673
21
-101.502
0
LINE
8
BLACK
6
CONTINUOUS
10
120.673
20
-101.502
11
120.67
21
-101.485
0
LINE
8
BLACK
6
CONTINUOUS
10
120.67
20
-101.485
11
120.67
21
-101.215
0
LINE
8
BLACK
6
CONTINUOUS
10
120.67
20
-101.215
11
120.673
21
-101.198
0
LINE
8
BLACK
6
CONTINUOUS
10
120.673
20
-101.198
11
120.683
21
-101.183
0
LINE
8
BLACK
6
CONTINUOUS
10
120.683
20
-101.183
11
120.698
21
-101.173
0
LINE
8
BLACK
6
CONTINUOUS
10
120.698
20
-101.173
11
120.715
21
-101.17
0
LINE
8
BLACK
6
CONTINUOUS
10
120.715
20
-101.17
11
121.085
21
-101.17
0
LINE
8
BLACK
6
CONTINUOUS
10
121.085
20
-101.17
11
121.102
21
-101.173
0
LINE
8
BLACK
6
CONTINUOUS
10
122.208
20
-101.173
11
122.219
21
-101.181
0
LINE
8
BLACK
6
CONTINUOUS
10
122.219
20
-101.181
11
122.227
21
-101.192
0
LINE
8
BLACK
6
CONTINUOUS
10
122.227
20
-101.192
11
122.23
21
-101.206
0
LINE
8
BLACK
6
CONTINUOUS
10
122.23
20
-101.206
11
122.23
21
-101.494
0
LINE
8
BLACK
6
CONTINUOUS
10
122.23
20
-101.494
11
122.227
21
-101.508
0
LINE
8
BLACK
6
CONTINUOUS
10
122.227
20
-101.508
11
122.219
21
-101.519
0
LINE
8
BLACK
6
CONTINUOUS
10
122.219
20
-101.519
11
122.208
21
-101.527
0
LINE
8
BLACK
6
CONTINUOUS
10
122.208
20
-101.527
11
122.194
21
-101.53
0
LINE
8
BLACK
6
CONTINUOUS
10
122.194
20
-101.53
11
121.806
21
-101.53
0
LINE
8
BLACK
6
CONTINUOUS
10
121.806
20
-101.53
11
121.792
21
-101.527
0
LINE
8
BLACK
6
CONTINUOUS
10
121.792
20
-101.527
11
121.781
21
-101.519
0
LINE
8
BLACK
6
CONTINUOUS
10
121.781
20
-101.519
11
121.773
21
-101.508
0
LINE
8
BLACK
6
CONTINUOUS
10
121.773
20
-101.508
11
121.77
21
-101.494
0
LINE
8
BLACK
6
CONTINUOUS
10
121.77
20
-101.494
11
121.77
21
-101.206
0
LINE
8
BLACK
6
CONTINUOUS
10
121.77
20
-101.206
11
121.773
21
-101.192
0
LINE
8
BLACK
6
CONTINUOUS
10
121.773
20
-101.192
11
121.781
21
-101.181
0
LINE
8
BLACK
6
CONTINUOUS
10
121.781
20
-101.181
11
121.792
21
-101.173
0
LINE
8
BLACK
6
CONTINUOUS
10
121.792
20
-101.173
11
121.806
21
-101.17
0
LINE
8
BLACK
6
CONTINUOUS
10
121.806
20
-101.17
11
122.194
21
-101.17
0
LINE
8
BLACK
6
CONTINUOUS
10
122.194
20
-101.17
11
122.208
21
-101.173
0
LINE
8
BLACK
6
CONTINUOUS
10
136.802
20
-100.623
11
136.817
21
-100.633
0
LINE
8
BLACK
6
CONTINUOUS
10
136.817
20
-100.633
11
136.827
21
-100.648
0
LINE
8
BLACK
6
CONTINUOUS
10
136.827
20
-100.648
11
136.83
21
-100.665
0
LINE
8
BLACK
6
CONTINUOUS
10
136.83
20
-100.665
11
136.83
21
-101.035
0
LINE
8
BLACK
6
CONTINUOUS
10
136.83
20
-101.035
11
136.827
21
-101.052
0
LINE
8
BLACK
6
CONTINUOUS
10
136.827
20
-101.052
11
136.817
21
-101.067
0
LINE
8
BLACK
6
CONTINUOUS
10
136.817
20
-101.067
11
136.802
21
-101.077
0
LINE
8
BLACK
6
CONTINUOUS
10
136.802
20
-101.077
11
136.785
21
-101.08
0
LINE
8
BLACK
6
CONTINUOUS
10
136.785
20
-101.08
11
136.515
21
-101.08
0
LINE
8
BLACK
6
CONTINUOUS
10
136.515
20
-101.08
11
136.498
21
-101.077
0
LINE
8
BLACK
6
CONTINUOUS
10
136.498
20
-101.077
11
136.483
21
-101.067
0
LINE
8
BLACK
6
CONTINUOUS
10
136.483
20
-101.067
11
136.473
21
-101.052
0
LINE
8
BLACK
6
CONTINUOUS
10
136.473
20
-101.052
11
136.47
21
-101.035
0
LINE
8
BLACK
6
CONTINUOUS
10
136.47
20
-101.035
11
136.47
21
-100.665
0
LINE
8
BLACK
6
CONTINUOUS
10
136.47
20
-100.665
11
136.473
21
-100.648
0
LINE
8
BLACK
6
CONTINUOUS
10
136.473
20
-100.648
11
136.483
21
-100.633
0
LINE
8
BLACK
6
CONTINUOUS
10
136.483
20
-100.633
11
136.498
21
-100.623
0
LINE
8
BLACK
6
CONTINUOUS
10
136.498
20
-100.623
11
136.515
21
-100.62
0
LINE
8
BLACK
6
CONTINUOUS
10
136.515
20
-100.62
11
136.785
21
-100.62
0
LINE
8
BLACK
6
CONTINUOUS
10
136.785
20
-100.62
11
136.802
21
-100.623
0
LINE
8
BLACK
6
CONTINUOUS
10
137.702
20
-100.623
11
137.717
21
-100.633
0
LINE
8
BLACK
6
CONTINUOUS
10
137.717
20
-100.633
11
137.727
21
-100.648
0
LINE
8
BLACK
6
CONTINUOUS
10
137.727
20
-100.648
11
137.73
21
-100.665
0
LINE
8
BLACK
6
CONTINUOUS
10
137.73
20
-100.665
11
137.73
21
-101.035
0
LINE
8
BLACK
6
CONTINUOUS
10
137.73
20
-101.035
11
137.727
21
-101.052
0
LINE
8
BLACK
6
CONTINUOUS
10
137.727
20
-101.052
11
137.717
21
-101.067
0
LINE
8
BLACK
6
CONTINUOUS
10
137.717
20
-101.067
11
137.702
21
-101.077
0
LINE
8
BLACK
6
CONTINUOUS
10
137.702
20
-101.077
11
137.685
21
-101.08
0
LINE
8
BLACK
6
CONTINUOUS
10
137.685
20
-101.08
11
137.415
21
-101.08
0
LINE
8
BLACK
6
CONTINUOUS
10
137.415
20
-101.08
11
137.398
21
-101.077
0
LINE
8
BLACK
6
CONTINUOUS
10
137.398
20
-101.077
11
137.383
21
-101.067
0
LINE
8
BLACK
6
CONTINUOUS
10
137.383
20
-101.067
11
137.373
21
-101.052
0
LINE
8
BLACK
6
CONTINUOUS
10
137.373
20
-101.052
11
137.37
21
-101.035
0
LINE
8
BLACK
6
CONTINUOUS
10
137.37
20
-101.035
11
137.37
21
-100.665
0
LINE
8
BLACK
6
CONTINUOUS
10
137.37
20
-100.665
11
137.373
21
-100.648
0
LINE
8
BLACK
6
CONTINUOUS
10
137.373
20
-100.648
11
137.383
21
-100.633
0
LINE
8
BLACK
6
CONTINUOUS
10
137.383
20
-100.633
11
137.398
21
-100.623
0
LINE
8
BLACK
6
CONTINUOUS
10
137.398
20
-100.623
11
137.415
21
-100.62
0
LINE
8
BLACK
6
CONTINUOUS
10
137.415
20
-100.62
11
137.685
21
-100.62
0
LINE
8
BLACK
6
CONTINUOUS
10
137.685
20
-100.62
11
137.702
21
-100.623
0
LINE
8
BLACK
6
CONTINUOUS
10
116.486
20
-99.3378
11
116.561
21
-99.3885
0
LINE
8
BLACK
6
CONTINUOUS
10
116.561
20
-99.3885
11
116.612
21
-99.4645
0
LINE
8
BLACK
6
CONTINUOUS
10
116.612
20
-99.4645
11
116.63
21
-99.554
0
LINE
8
BLACK
6
CONTINUOUS
10
116.63
20
-99.554
11
116.63
21
-100.646
0
LINE
8
BLACK
6
CONTINUOUS
10
116.63
20
-100.646
11
116.612
21
-100.736
0
LINE
8
BLACK
6
CONTINUOUS
10
116.612
20
-100.736
11
116.561
21
-100.811
0
LINE
8
BLACK
6
CONTINUOUS
10
116.561
20
-100.811
11
116.486
21
-100.862
0
LINE
8
BLACK
6
CONTINUOUS
10
116.486
20
-100.862
11
116.396
21
-100.88
0
LINE
8
BLACK
6
CONTINUOUS
10
116.396
20
-100.88
11
115.304
21
-100.88
0
LINE
8
BLACK
6
CONTINUOUS
10
115.304
20
-100.88
11
115.214
21
-100.862
0
LINE
8
BLACK
6
CONTINUOUS
10
115.214
20
-100.862
11
115.139
21
-100.811
0
LINE
8
BLACK
6
CONTINUOUS
10
115.139
20
-100.811
11
115.088
21
-100.736
0
LINE
8
BLACK
6
CONTINUOUS
10
115.088
20
-100.736
11
115.07
21
-100.646
0
LINE
8
BLACK
6
CONTINUOUS
10
115.07
20
-100.646
11
115.07
21
-99.554
0
LINE
8
BLACK
6
CONTINUOUS
10
115.07
20
-99.554
11
115.088
21
-99.4645
0
LINE
8
BLACK
6
CONTINUOUS
10
115.088
20
-99.4645
11
115.139
21
-99.3885
0
LINE
8
BLACK
6
CONTINUOUS
10
115.139
20
-99.3885
11
115.214
21
-99.3378
0
LINE
8
BLACK
6
CONTINUOUS
10
115.214
20
-99.3378
11
115.304
21
-99.32
0
LINE
8
BLACK
6
CONTINUOUS
10
115.304
20
-99.32
11
116.396
21
-99.32
0
LINE
8
BLACK
6
CONTINUOUS
10
116.396
20
-99.32
11
116.486
21
-99.3378
0
LINE
8
BLACK
6
CONTINUOUS
10
114.072
20
-100.403
11
114.087
21
-100.413
0
LINE
8
BLACK
6
CONTINUOUS
10
114.087
20
-100.413
11
114.097
21
-100.428
0
LINE
8
BLACK
6
CONTINUOUS
10
114.097
20
-100.428
11
114.1
21
-100.445
0
LINE
8
BLACK
6
CONTINUOUS
10
114.1
20
-100.445
11
114.1
21
-100.805
0
LINE
8
BLACK
6
CONTINUOUS
10
114.1
20
-100.805
11
114.097
21
-100.822
0
LINE
8
BLACK
6
CONTINUOUS
10
114.097
20
-100.822
11
114.087
21
-100.837
0
LINE
8
BLACK
6
CONTINUOUS
10
114.087
20
-100.837
11
114.072
21
-100.847
0
LINE
8
BLACK
6
CONTINUOUS
10
114.072
20
-100.847
11
114.055
21
-100.85
0
LINE
8
BLACK
6
CONTINUOUS
10
114.055
20
-100.85
11
113.445
21
-100.85
0
LINE
8
BLACK
6
CONTINUOUS
10
113.445
20
-100.85
11
113.428
21
-100.847
0
LINE
8
BLACK
6
CONTINUOUS
10
113.428
20
-100.847
11
113.413
21
-100.837
0
LINE
8
BLACK
6
CONTINUOUS
10
113.413
20
-100.837
11
113.403
21
-100.822
0
LINE
8
BLACK
6
CONTINUOUS
10
113.403
20
-100.822
11
113.4
21
-100.805
0
LINE
8
BLACK
6
CONTINUOUS
10
113.4
20
-100.805
11
113.4
21
-100.445
0
LINE
8
BLACK
6
CONTINUOUS
10
113.4
20
-100.445
11
113.403
21
-100.428
0
LINE
8
BLACK
6
CONTINUOUS
10
113.403
20
-100.428
11
113.413
21
-100.413
0
LINE
8
BLACK
6
CONTINUOUS
10
113.413
20
-100.413
11
113.428
21
-100.403
0
LINE
8
BLACK
6
CONTINUOUS
10
113.428
20
-100.403
11
113.445
21
-100.4
0
LINE
8
BLACK
6
CONTINUOUS
10
113.445
20
-100.4
11
114.055
21
-100.4
0
LINE
8
BLACK
6
CONTINUOUS
10
114.055
20
-100.4
11
114.072
21
-100.403
0
LINE
8
BLACK
6
CONTINUOUS
10
129.019
20
-100.404
11
129.035
21
-100.415
0
LINE
8
BLACK
6
CONTINUOUS
10
129.035
20
-100.415
11
129.046
21
-100.431
0
LINE
8
BLACK
6
CONTINUOUS
10
129.046
20
-100.431
11
129.05
21
-100.45
0
LINE
8
BLACK
6
CONTINUOUS
10
129.05
20
-100.45
11
129.05
21
-100.55
0
LINE
8
BLACK
6
CONTINUOUS
10
129.05
20
-100.55
11
129.046
21
-100.569
0
LINE
8
BLACK
6
CONTINUOUS
10
129.046
20
-100.569
11
129.035
21
-100.585
0
LINE
8
BLACK
6
CONTINUOUS
10
129.035
20
-100.585
11
129.019
21
-100.596
0
LINE
8
BLACK
6
CONTINUOUS
10
129.019
20
-100.596
11
129
21
-100.6
0
LINE
8
BLACK
6
CONTINUOUS
10
129
20
-100.6
11
128.225
21
-100.6
0
LINE
8
BLACK
6
CONTINUOUS
10
128.225
20
-100.6
11
128.206
21
-100.596
0
LINE
8
BLACK
6
CONTINUOUS
10
128.206
20
-100.596
11
128.19
21
-100.585
0
LINE
8
BLACK
6
CONTINUOUS
10
128.19
20
-100.585
11
128.179
21
-100.569
0
LINE
8
BLACK
6
CONTINUOUS
10
128.179
20
-100.569
11
128.175
21
-100.55
0
LINE
8
BLACK
6
CONTINUOUS
10
128.175
20
-100.55
11
128.175
21
-100.45
0
LINE
8
BLACK
6
CONTINUOUS
10
128.175
20
-100.45
11
128.179
21
-100.431
0
LINE
8
BLACK
6
CONTINUOUS
10
128.179
20
-100.431
11
128.19
21
-100.415
0
LINE
8
BLACK
6
CONTINUOUS
10
128.19
20
-100.415
11
128.206
21
-100.404
0
LINE
8
BLACK
6
CONTINUOUS
10
128.206
20
-100.404
11
128.225
21
-100.4
0
LINE
8
BLACK
6
CONTINUOUS
10
128.225
20
-100.4
11
129
21
-100.4
0
LINE
8
BLACK
6
CONTINUOUS
10
129
20
-100.4
11
129.019
21
-100.404
0
LINE
8
BLACK
6
CONTINUOUS
10
135.894
20
-100.404
11
135.91
21
-100.415
0
LINE
8
BLACK
6
CONTINUOUS
10
135.91
20
-100.415
11
135.921
21
-100.431
0
LINE
8
BLACK
6
CONTINUOUS
10
135.921
20
-100.431
11
135.925
21
-100.45
0
LINE
8
BLACK
6
CONTINUOUS
10
135.925
20
-100.45
11
135.925
21
-100.55
0
LINE
8
BLACK
6
CONTINUOUS
10
135.925
20
-100.55
11
135.921
21
-100.569
0
LINE
8
BLACK
6
CONTINUOUS
10
135.921
20
-100.569
11
135.91
21
-100.585
0
LINE
8
BLACK
6
CONTINUOUS
10
135.91
20
-100.585
11
135.894
21
-100.596
0
LINE
8
BLACK
6
CONTINUOUS
10
135.894
20
-100.596
11
135.875
21
-100.6
0
LINE
8
BLACK
6
CONTINUOUS
10
135.875
20
-100.6
11
135.1
21
-100.6
0
LINE
8
BLACK
6
CONTINUOUS
10
135.1
20
-100.6
11
135.081
21
-100.596
0
LINE
8
BLACK
6
CONTINUOUS
10
135.081
20
-100.596
11
135.065
21
-100.585
0
LINE
8
BLACK
6
CONTINUOUS
10
135.065
20
-100.585
11
135.054
21
-100.569
0
LINE
8
BLACK
6
CONTINUOUS
10
135.054
20
-100.569
11
135.05
21
-100.55
0
LINE
8
BLACK
6
CONTINUOUS
10
135.05
20
-100.55
11
135.05
21
-100.45
0
LINE
8
BLACK
6
CONTINUOUS
10
135.05
20
-100.45
11
135.054
21
-100.431
0
LINE
8
BLACK
6
CONTINUOUS
10
135.054
20
-100.431
11
135.065
21
-100.415
0
LINE
8
BLACK
6
CONTINUOUS
10
135.065
20
-100.415
11
135.081
21
-100.404
0
LINE
8
BLACK
6
CONTINUOUS
10
135.081
20
-100.404
11
135.1
21
-100.4
0
LINE
8
BLACK
6
CONTINUOUS
10
135.1
20
-100.4
11
135.875
21
-100.4
0
LINE
8
BLACK
6
CONTINUOUS
10
135.875
20
-100.4
11
135.894
21
-100.404
0
LINE
8
BLACK
6
CONTINUOUS
10
137.852
20
-99.9234
11
137.867
21
-99.9332
0
LINE
8
BLACK
6
CONTINUOUS
10
137.867
20
-99.9332
11
137.877
21
-99.9478
0
LINE
8
BLACK
6
CONTINUOUS
10
137.877
20
-99.9478
11
137.88
21
-99.965
0
LINE
8
BLACK
6
CONTINUOUS
10
137.88
20
-99.965
11
137.88
21
-100.335
0
LINE
8
BLACK
6
CONTINUOUS
10
137.88
20
-100.335
11
137.877
21
-100.352
0
LINE
8
BLACK
6
CONTINUOUS
10
137.877
20
-100.352
11
137.867
21
-100.367
0
LINE
8
BLACK
6
CONTINUOUS
10
137.867
20
-100.367
11
137.852
21
-100.377
0
LINE
8
BLACK
6
CONTINUOUS
10
137.852
20
-100.377
11
137.835
21
-100.38
0
LINE
8
BLACK
6
CONTINUOUS
10
137.835
20
-100.38
11
137.565
21
-100.38
0
LINE
8
BLACK
6
CONTINUOUS
10
137.565
20
-100.38
11
137.548
21
-100.377
0
LINE
8
BLACK
6
CONTINUOUS
10
137.548
20
-100.377
11
137.533
21
-100.367
0
LINE
8
BLACK
6
CONTINUOUS
10
137.533
20
-100.367
11
137.523
21
-100.352
0
LINE
8
BLACK
6
CONTINUOUS
10
137.523
20
-100.352
11
137.52
21
-100.335
0
LINE
8
BLACK
6
CONTINUOUS
10
137.52
20
-100.335
11
137.52
21
-99.965
0
LINE
8
BLACK
6
CONTINUOUS
10
137.52
20
-99.965
11
137.523
21
-99.9478
0
LINE
8
BLACK
6
CONTINUOUS
10
137.523
20
-99.9478
11
137.533
21
-99.9332
0
LINE
8
BLACK
6
CONTINUOUS
10
137.533
20
-99.9332
11
137.548
21
-99.9234
0
LINE
8
BLACK
6
CONTINUOUS
10
137.548
20
-99.9234
11
137.565
21
-99.92
0
LINE
8
BLACK
6
CONTINUOUS
10
137.565
20
-99.92
11
137.835
21
-99.92
0
LINE
8
BLACK
6
CONTINUOUS
10
137.835
20
-99.92
11
137.852
21
-99.9234
0
LINE
8
BLACK
6
CONTINUOUS
10
136.952
20
-99.9234
11
136.967
21
-99.9332
0
LINE
8
BLACK
6
CONTINUOUS
10
136.967
20
-99.9332
11
136.977
21
-99.9478
0
LINE
8
BLACK
6
CONTINUOUS
10
136.977
20
-99.9478
11
136.98
21
-99.965
0
LINE
8
BLACK
6
CONTINUOUS
10
136.98
20
-99.965
11
136.98
21
-100.335
0
LINE
8
BLACK
6
CONTINUOUS
10
136.98
20
-100.335
11
136.977
21
-100.352
0
LINE
8
BLACK
6
CONTINUOUS
10
136.977
20
-100.352
11
136.967
21
-100.367
0
LINE
8
BLACK
6
CONTINUOUS
10
136.967
20
-100.367
11
136.952
21
-100.377
0
LINE
8
BLACK
6
CONTINUOUS
10
136.952
20
-100.377
11
136.935
21
-100.38
0
LINE
8
BLACK
6
CONTINUOUS
10
136.935
20
-100.38
11
136.665
21
-100.38
0
LINE
8
BLACK
6
CONTINUOUS
10
136.665
20
-100.38
11
136.648
21
-100.377
0
LINE
8
BLACK
6
CONTINUOUS
10
136.648
20
-100.377
11
136.633
21
-100.367
0
LINE
8
BLACK
6
CONTINUOUS
10
136.633
20
-100.367
11
136.623
21
-100.352
0
LINE
8
BLACK
6
CONTINUOUS
10
136.623
20
-100.352
11
136.62
21
-100.335
0
LINE
8
BLACK
6
CONTINUOUS
10
136.62
20
-100.335
11
136.62
21
-99.965
0
LINE
8
BLACK
6
CONTINUOUS
10
136.62
20
-99.965
11
136.623
21
-99.9478
0
LINE
8
BLACK
6
CONTINUOUS
10
136.623
20
-99.9478
11
136.633
21
-99.9332
0
LINE
8
BLACK
6
CONTINUOUS
10
136.633
20
-99.9332
11
136.648
21
-99.9234
0
LINE
8
BLACK
6
CONTINUOUS
10
136.648
20
-99.9234
11
136.665
21
-99.92
0
LINE
8
BLACK
6
CONTINUOUS
10
136.665
20
-99.92
11
136.935
21
-99.92
0
LINE
8
BLACK
6
CONTINUOUS
10
136.935
20
-99.92
11
136.952
21
-99.9234
0
LINE
8
BLACK
6
CONTINUOUS
10
129.019
20
-100.004
11
129.035
21
-100.015
0
LINE
8
BLACK
6
CONTINUOUS
10
129.035
20
-100.015
11
129.046
21
-100.031
0
LINE
8
BLACK
6
CONTINUOUS
10
129.046
20
-100.031
11
129.05
21
-100.05
0
LINE
8
BLACK
6
CONTINUOUS
10
129.05
20
-100.05
11
129.05
21
-100.15
0
LINE
8
BLACK
6
CONTINUOUS
10
129.05
20
-100.15
11
129.046
21
-100.169
0
LINE
8
BLACK
6
CONTINUOUS
10
129.046
20
-100.169
11
129.035
21
-100.185
0
LINE
8
BLACK
6
CONTINUOUS
10
129.035
20
-100.185
11
129.019
21
-100.196
0
LINE
8
BLACK
6
CONTINUOUS
10
129.019
20
-100.196
11
129
21
-100.2
0
LINE
8
BLACK
6
CONTINUOUS
10
129
20
-100.2
11
128.225
21
-100.2
0
LINE
8
BLACK
6
CONTINUOUS
10
128.225
20
-100.2
11
128.206
21
-100.196
0
LINE
8
BLACK
6
CONTINUOUS
10
128.206
20
-100.196
11
128.19
21
-100.185
0
LINE
8
BLACK
6
CONTINUOUS
10
128.19
20
-100.185
11
128.179
21
-100.169
0
LINE
8
BLACK
6
CONTINUOUS
10
128.179
20
-100.169
11
128.175
21
-100.15
0
LINE
8
BLACK
6
CONTINUOUS
10
128.175
20
-100.15
11
128.175
21
-100.05
0
LINE
8
BLACK
6
CONTINUOUS
10
128.175
20
-100.05
11
128.179
21
-100.031
0
LINE
8
BLACK
6
CONTINUOUS
10
128.179
20
-100.031
11
128.19
21
-100.015
0
LINE
8
BLACK
6
CONTINUOUS
10
128.19
20
-100.015
11
128.206
21
-100.004
0
LINE
8
BLACK
6
CONTINUOUS
10
128.206
20
-100.004
11
128.225
21
-100
0
LINE
8
BLACK
6
CONTINUOUS
10
128.225
20
-100
11
129
21
-100
0
LINE
8
BLACK
6
CONTINUOUS
10
129
20
-100
11
129.019
21
-100.004
0
LINE
8
BLACK
6
CONTINUOUS
10
135.894
20
-100.004
11
135.91
21
-100.015
0
LINE
8
BLACK
6
CONTINUOUS
10
135.91
20
-100.015
11
135.921
21
-100.031
0
LINE
8
BLACK
6
CONTINUOUS
10
135.921
20
-100.031
11
135.925
21
-100.05
0
LINE
8
BLACK
6
CONTINUOUS
10
135.925
20
-100.05
11
135.925
21
-100.15
0
LINE
8
BLACK
6
CONTINUOUS
10
135.925
20
-100.15
11
135.921
21
-100.169
0
LINE
8
BLACK
6
CONTINUOUS
10
135.921
20
-100.169
11
135.91
21
-100.185
0
LINE
8
BLACK
6
CONTINUOUS
10
135.91
20
-100.185
11
135.894
21
-100.196
0
LINE
8
BLACK
6
CONTINUOUS
10
135.894
20
-100.196
11
135.875
21
-100.2
0
LINE
8
BLACK
6
CONTINUOUS
10
135.875
20
-100.2
11
135.1
21
-100.2
0
LINE
8
BLACK
6
CONTINUOUS
10
135.1
20
-100.2
11
135.081
21
-100.196
0
LINE
8
BLACK
6
CONTINUOUS
10
135.081
20
-100.196
11
135.065
21
-100.185
0
LINE
8
BLACK
6
CONTINUOUS
10
135.065
20
-100.185
11
135.054
21
-100.169
0
LINE
8
BLACK
6
CONTINUOUS
10
135.054
20
-100.169
11
135.05
21
-100.15
0
LINE
8
BLACK
6
CONTINUOUS
10
135.05
20
-100.15
11
135.05
21
-100.05
0
LINE
8
BLACK
6
CONTINUOUS
10
135.05
20
-100.05
11
135.054
21
-100.031
0
LINE
8
BLACK
6
CONTINUOUS
10
135.054
20
-100.031
11
135.065
21
-100.015
0
LINE
8
BLACK
6
CONTINUOUS
10
135.065
20
-100.015
11
135.081
21
-100.004
0
LINE
8
BLACK
6
CONTINUOUS
10
135.081
20
-100.004
11
135.1
21
-100
0
LINE
8
BLACK
6
CONTINUOUS
10
135.1
20
-100
11
135.875
21
-100
0
LINE
8
BLACK
6
CONTINUOUS
10
135.875
20
-100
11
135.894
21
-100.004
0
LINE
8
BLACK
6
CONTINUOUS
10
113.958
20
-99.7727
11
113.969
21
-99.7805
0
LINE
8
BLACK
6
CONTINUOUS
10
113.969
20
-99.7805
11
113.977
21
-99.7922
0
LINE
8
BLACK
6
CONTINUOUS
10
113.977
20
-99.7922
11
113.98
21
-99.806
0
LINE
8
BLACK
6
CONTINUOUS
10
113.98
20
-99.806
11
113.98
21
-100.094
0
LINE
8
BLACK
6
CONTINUOUS
10
113.98
20
-100.094
11
113.977
21
-100.108
0
LINE
8
BLACK
6
CONTINUOUS
10
113.977
20
-100.108
11
113.969
21
-100.119
0
LINE
8
BLACK
6
CONTINUOUS
10
113.969
20
-100.119
11
113.958
21
-100.127
0
LINE
8
BLACK
6
CONTINUOUS
10
113.958
20
-100.127
11
113.944
21
-100.13
0
LINE
8
BLACK
6
CONTINUOUS
10
113.944
20
-100.13
11
113.556
21
-100.13
0
LINE
8
BLACK
6
CONTINUOUS
10
113.556
20
-100.13
11
113.542
21
-100.127
0
LINE
8
BLACK
6
CONTINUOUS
10
113.542
20
-100.127
11
113.531
21
-100.119
0
LINE
8
BLACK
6
CONTINUOUS
10
113.531
20
-100.119
11
113.523
21
-100.108
0
LINE
8
BLACK
6
CONTINUOUS
10
113.523
20
-100.108
11
113.52
21
-100.094
0
LINE
8
BLACK
6
CONTINUOUS
10
113.52
20
-100.094
11
113.52
21
-99.806
0
LINE
8
BLACK
6
CONTINUOUS
10
113.52
20
-99.806
11
113.523
21
-99.7922
0
LINE
8
BLACK
6
CONTINUOUS
10
113.523
20
-99.7922
11
113.531
21
-99.7805
0
LINE
8
BLACK
6
CONTINUOUS
10
113.531
20
-99.7805
11
113.542
21
-99.7727
0
LINE
8
BLACK
6
CONTINUOUS
10
113.542
20
-99.7727
11
113.556
21
-99.77
0
LINE
8
BLACK
6
CONTINUOUS
10
113.556
20
-99.77
11
113.944
21
-99.77
0
LINE
8
BLACK
6
CONTINUOUS
10
113.944
20
-99.77
11
113.958
21
-99.7727
0
LINE
8
BLACK
6
CONTINUOUS
10
135.894
20
-99.6038
11
135.91
21
-99.6146
0
LINE
8
BLACK
6
CONTINUOUS
10
135.91
20
-99.6146
11
135.921
21
-99.6309
0
LINE
8
BLACK
6
CONTINUOUS
10
135.921
20
-99.6309
11
135.925
21
-99.65
0
LINE
8
BLACK
6
CONTINUOUS
10
135.925
20
-99.65
11
135.925
21
-99.75
0
LINE
8
BLACK
6
CONTINUOUS
10
135.925
20
-99.75
11
135.921
21
-99.7691
0
LINE
8
BLACK
6
CONTINUOUS
10
135.921
20
-99.7691
11
135.91
21
-99.7854
0
LINE
8
BLACK
6
CONTINUOUS
10
135.91
20
-99.7854
11
135.894
21
-99.7962
0
LINE
8
BLACK
6
CONTINUOUS
10
135.894
20
-99.7962
11
135.875
21
-99.8
0
LINE
8
BLACK
6
CONTINUOUS
10
135.875
20
-99.8
11
135.1
21
-99.8
0
LINE
8
BLACK
6
CONTINUOUS
10
135.1
20
-99.8
11
135.081
21
-99.7962
0
LINE
8
BLACK
6
CONTINUOUS
10
135.081
20
-99.7962
11
135.065
21
-99.7854
0
LINE
8
BLACK
6
CONTINUOUS
10
135.065
20
-99.7854
11
135.054
21
-99.7691
0
LINE
8
BLACK
6
CONTINUOUS
10
135.054
20
-99.7691
11
135.05
21
-99.75
0
LINE
8
BLACK
6
CONTINUOUS
10
135.05
20
-99.75
11
135.05
21
-99.65
0
LINE
8
BLACK
6
CONTINUOUS
10
135.05
20
-99.65
11
135.054
21
-99.6309
0
LINE
8
BLACK
6
CONTINUOUS
10
135.054
20
-99.6309
11
135.065
21
-99.6146
0
LINE
8
BLACK
6
CONTINUOUS
10
135.065
20
-99.6146
11
135.081
21
-99.6038
0
LINE
8
BLACK
6
CONTINUOUS
10
135.081
20
-99.6038
11
135.1
21
-99.6
0
LINE
8
BLACK
6
CONTINUOUS
10
135.1
20
-99.6
11
135.875
21
-99.6
0
LINE
8
BLACK
6
CONTINUOUS
10
135.875
20
-99.6
11
135.894
21
-99.6038
0
LINE
8
BLACK
6
CONTINUOUS
10
129.019
20
-99.6038
11
129.035
21
-99.6146
0
LINE
8
BLACK
6
CONTINUOUS
10
129.035
20
-99.6146
11
129.046
21
-99.6309
0
LINE
8
BLACK
6
CONTINUOUS
10
129.046
20
-99.6309
11
129.05
21
-99.65
0
LINE
8
BLACK
6
CONTINUOUS
10
129.05
20
-99.65
11
129.05
21
-99.75
0
LINE
8
BLACK
6
CONTINUOUS
10
129.05
20
-99.75
11
129.046
21
-99.7691
0
LINE
8
BLACK
6
CONTINUOUS
10
129.046
20
-99.7691
11
129.035
21
-99.7854
0
LINE
8
BLACK
6
CONTINUOUS
10
129.035
20
-99.7854
11
129.019
21
-99.7962
0
LINE
8
BLACK
6
CONTINUOUS
10
129.019
20
-99.7962
11
129
21
-99.8
0
LINE
8
BLACK
6
CONTINUOUS
10
129
20
-99.8
11
128.225
21
-99.8
0
LINE
8
BLACK
6
CONTINUOUS
10
128.225
20
-99.8
11
128.206
21
-99.7962
0
LINE
8
BLACK
6
CONTINUOUS
10
128.206
20
-99.7962
11
128.19
21
-99.7854
0
LINE
8
BLACK
6
CONTINUOUS
10
128.19
20
-99.7854
11
128.179
21
-99.7691
0
LINE
8
BLACK
6
CONTINUOUS
10
128.179
20
-99.7691
11
128.175
21
-99.75
0
LINE
8
BLACK
6
CONTINUOUS
10
128.175
20
-99.75
11
128.175
21
-99.65
0
LINE
8
BLACK
6
CONTINUOUS
10
128.175
20
-99.65
11
128.179
21
-99.6309
0
LINE
8
BLACK
6
CONTINUOUS
10
128.179
20
-99.6309
11
128.19
21
-99.6146
0
LINE
8
BLACK
6
CONTINUOUS
10
128.19
20
-99.6146
11
128.206
21
-99.6038
0
LINE
8
BLACK
6
CONTINUOUS
10
128.206
20
-99.6038
11
128.225
21
-99.6
0
LINE
8
BLACK
6
CONTINUOUS
10
128.225
20
-99.6
11
129
21
-99.6
0
LINE
8
BLACK
6
CONTINUOUS
10
129
20
-99.6
11
129.019
21
-99.6038
0
LINE
8
BLACK
6
CONTINUOUS
10
126.708
20
-99.3227
11
126.719
21
-99.3305
0
LINE
8
BLACK
6
CONTINUOUS
10
126.719
20
-99.3305
11
126.727
21
-99.3422
0
LINE
8
BLACK
6
CONTINUOUS
10
126.727
20
-99.3422
11
126.73
21
-99.356
0
LINE
8
BLACK
6
CONTINUOUS
10
126.73
20
-99.356
11
126.73
21
-99.744
0
LINE
8
BLACK
6
CONTINUOUS
10
126.73
20
-99.744
11
126.727
21
-99.7578
0
LINE
8
BLACK
6
CONTINUOUS
10
126.727
20
-99.7578
11
126.719
21
-99.7695
0
LINE
8
BLACK
6
CONTINUOUS
10
126.719
20
-99.7695
11
126.708
21
-99.7773
0
LINE
8
BLACK
6
CONTINUOUS
10
126.708
20
-99.7773
11
126.694
21
-99.78
0
LINE
8
BLACK
6
CONTINUOUS
10
126.694
20
-99.78
11
126.406
21
-99.78
0
LINE
8
BLACK
6
CONTINUOUS
10
126.406
20
-99.78
11
126.392
21
-99.7773
0
LINE
8
BLACK
6
CONTINUOUS
10
126.392
20
-99.7773
11
126.381
21
-99.7695
0
LINE
8
BLACK
6
CONTINUOUS
10
126.381
20
-99.7695
11
126.373
21
-99.7578
0
LINE
8
BLACK
6
CONTINUOUS
10
126.373
20
-99.7578
11
126.37
21
-99.744
0
LINE
8
BLACK
6
CONTINUOUS
10
126.37
20
-99.744
11
126.37
21
-99.356
0
LINE
8
BLACK
6
CONTINUOUS
10
126.37
20
-99.356
11
126.373
21
-99.3422
0
LINE
8
BLACK
6
CONTINUOUS
10
126.373
20
-99.3422
11
126.381
21
-99.3305
0
LINE
8
BLACK
6
CONTINUOUS
10
126.381
20
-99.3305
11
126.392
21
-99.3227
0
LINE
8
BLACK
6
CONTINUOUS
10
126.392
20
-99.3227
11
126.406
21
-99.32
0
LINE
8
BLACK
6
CONTINUOUS
10
126.406
20
-99.32
11
126.694
21
-99.32
0
LINE
8
BLACK
6
CONTINUOUS
10
126.694
20
-99.32
11
126.708
21
-99.3227
0
LINE
8
BLACK
6
CONTINUOUS
10
127.608
20
-99.3227
11
127.619
21
-99.3305
0
LINE
8
BLACK
6
CONTINUOUS
10
127.619
20
-99.3305
11
127.627
21
-99.3422
0
LINE
8
BLACK
6
CONTINUOUS
10
127.627
20
-99.3422
11
127.63
21
-99.356
0
LINE
8
BLACK
6
CONTINUOUS
10
127.63
20
-99.356
11
127.63
21
-99.744
0
LINE
8
BLACK
6
CONTINUOUS
10
127.63
20
-99.744
11
127.627
21
-99.7578
0
LINE
8
BLACK
6
CONTINUOUS
10
127.627
20
-99.7578
11
127.619
21
-99.7695
0
LINE
8
BLACK
6
CONTINUOUS
10
127.619
20
-99.7695
11
127.608
21
-99.7773
0
LINE
8
BLACK
6
CONTINUOUS
10
127.608
20
-99.7773
11
127.594
21
-99.78
0
LINE
8
BLACK
6
CONTINUOUS
10
127.594
20
-99.78
11
127.306
21
-99.78
0
LINE
8
BLACK
6
CONTINUOUS
10
127.306
20
-99.78
11
127.292
21
-99.7773
0
LINE
8
BLACK
6
CONTINUOUS
10
127.292
20
-99.7773
11
127.281
21
-99.7695
0
LINE
8
BLACK
6
CONTINUOUS
10
127.281
20
-99.7695
11
127.273
21
-99.7578
0
LINE
8
BLACK
6
CONTINUOUS
10
127.273
20
-99.7578
11
127.27
21
-99.744
0
LINE
8
BLACK
6
CONTINUOUS
10
127.27
20
-99.744
11
127.27
21
-99.356
0
LINE
8
BLACK
6
CONTINUOUS
10
127.27
20
-99.356
11
127.273
21
-99.3422
0
LINE
8
BLACK
6
CONTINUOUS
10
127.273
20
-99.3422
11
127.281
21
-99.3305
0
LINE
8
BLACK
6
CONTINUOUS
10
127.281
20
-99.3305
11
127.292
21
-99.3227
0
LINE
8
BLACK
6
CONTINUOUS
10
127.292
20
-99.3227
11
127.306
21
-99.32
0
LINE
8
BLACK
6
CONTINUOUS
10
127.306
20
-99.32
11
127.594
21
-99.32
0
LINE
8
BLACK
6
CONTINUOUS
10
127.594
20
-99.32
11
127.608
21
-99.3227
0
LINE
8
BLACK
6
CONTINUOUS
10
137.708
20
-99.2227
11
137.719
21
-99.2305
0
LINE
8
BLACK
6
CONTINUOUS
10
137.719
20
-99.2305
11
137.727
21
-99.2422
0
LINE
8
BLACK
6
CONTINUOUS
10
137.727
20
-99.2422
11
137.73
21
-99.256
0
LINE
8
BLACK
6
CONTINUOUS
10
137.73
20
-99.256
11
137.73
21
-99.644
0
LINE
8
BLACK
6
CONTINUOUS
10
137.73
20
-99.644
11
137.727
21
-99.6578
0
LINE
8
BLACK
6
CONTINUOUS
10
137.727
20
-99.6578
11
137.719
21
-99.6695
0
LINE
8
BLACK
6
CONTINUOUS
10
137.719
20
-99.6695
11
137.708
21
-99.6773
0
LINE
8
BLACK
6
CONTINUOUS
10
137.708
20
-99.6773
11
137.694
21
-99.68
0
LINE
8
BLACK
6
CONTINUOUS
10
137.694
20
-99.68
11
137.406
21
-99.68
0
LINE
8
BLACK
6
CONTINUOUS
10
137.406
20
-99.68
11
137.392
21
-99.6773
0
LINE
8
BLACK
6
CONTINUOUS
10
137.392
20
-99.6773
11
137.381
21
-99.6695
0
LINE
8
BLACK
6
CONTINUOUS
10
137.381
20
-99.6695
11
137.373
21
-99.6578
0
LINE
8
BLACK
6
CONTINUOUS
10
137.373
20
-99.6578
11
137.37
21
-99.644
0
LINE
8
BLACK
6
CONTINUOUS
10
137.37
20
-99.644
11
137.37
21
-99.256
0
LINE
8
BLACK
6
CONTINUOUS
10
137.37
20
-99.256
11
137.373
21
-99.2422
0
LINE
8
BLACK
6
CONTINUOUS
10
137.373
20
-99.2422
11
137.381
21
-99.2305
0
LINE
8
BLACK
6
CONTINUOUS
10
137.381
20
-99.2305
11
137.392
21
-99.2227
0
LINE
8
BLACK
6
CONTINUOUS
10
137.392
20
-99.2227
11
137.406
21
-99.22
0
LINE
8
BLACK
6
CONTINUOUS
10
137.406
20
-99.22
11
137.694
21
-99.22
0
LINE
8
BLACK
6
CONTINUOUS
10
137.694
20
-99.22
11
137.708
21
-99.2227
0
LINE
8
BLACK
6
CONTINUOUS
10
136.808
20
-99.2227
11
136.819
21
-99.2305
0
LINE
8
BLACK
6
CONTINUOUS
10
136.819
20
-99.2305
11
136.827
21
-99.2422
0
LINE
8
BLACK
6
CONTINUOUS
10
136.827
20
-99.2422
11
136.83
21
-99.256
0
LINE
8
BLACK
6
CONTINUOUS
10
136.83
20
-99.256
11
136.83
21
-99.644
0
LINE
8
BLACK
6
CONTINUOUS
10
136.83
20
-99.644
11
136.827
21
-99.6578
0
LINE
8
BLACK
6
CONTINUOUS
10
136.827
20
-99.6578
11
136.819
21
-99.6695
0
LINE
8
BLACK
6
CONTINUOUS
10
136.819
20
-99.6695
11
136.808
21
-99.6773
0
LINE
8
BLACK
6
CONTINUOUS
10
136.808
20
-99.6773
11
136.794
21
-99.68
0
LINE
8
BLACK
6
CONTINUOUS
10
136.794
20
-99.68
11
136.506
21
-99.68
0
LINE
8
BLACK
6
CONTINUOUS
10
136.506
20
-99.68
11
136.492
21
-99.6773
0
LINE
8
BLACK
6
CONTINUOUS
10
136.492
20
-99.6773
11
136.481
21
-99.6695
0
LINE
8
BLACK
6
CONTINUOUS
10
136.481
20
-99.6695
11
136.473
21
-99.6578
0
LINE
8
BLACK
6
CONTINUOUS
10
136.473
20
-99.6578
11
136.47
21
-99.644
0
LINE
8
BLACK
6
CONTINUOUS
10
136.47
20
-99.644
11
136.47
21
-99.256
0
LINE
8
BLACK
6
CONTINUOUS
10
136.47
20
-99.256
11
136.473
21
-99.2422
0
LINE
8
BLACK
6
CONTINUOUS
10
136.473
20
-99.2422
11
136.481
21
-99.2305
0
LINE
8
BLACK
6
CONTINUOUS
10
136.481
20
-99.2305
11
136.492
21
-99.2227
0
LINE
8
BLACK
6
CONTINUOUS
10
136.492
20
-99.2227
11
136.506
21
-99.22
0
LINE
8
BLACK
6
CONTINUOUS
10
136.506
20
-99.22
11
136.794
21
-99.22
0
LINE
8
BLACK
6
CONTINUOUS
10
136.794
20
-99.22
11
136.808
21
-99.2227
0
LINE
8
BLACK
6
CONTINUOUS
10
133.429
20
-98.2077
11
133.525
21
-98.2502
0
LINE
8
BLACK
6
CONTINUOUS
10
133.525
20
-98.2502
11
133.599
21
-98.3246
0
LINE
8
BLACK
6
CONTINUOUS
10
133.599
20
-98.3246
11
133.642
21
-98.4207
0
LINE
8
BLACK
6
CONTINUOUS
10
133.642
20
-98.4207
11
133.65
21
-98.4873
0
LINE
8
BLACK
6
CONTINUOUS
10
133.65
20
-98.4873
11
133.65
21
-99.2127
0
LINE
8
BLACK
6
CONTINUOUS
10
133.65
20
-99.2127
11
133.642
21
-99.2788
0
LINE
8
BLACK
6
CONTINUOUS
10
133.642
20
-99.2788
11
133.6
21
-99.375
0
LINE
8
BLACK
6
CONTINUOUS
10
133.6
20
-99.375
11
133.525
21
-99.4495
0
LINE
8
BLACK
6
CONTINUOUS
10
133.525
20
-99.4495
11
133.429
21
-99.4922
0
LINE
8
BLACK
6
CONTINUOUS
10
133.429
20
-99.4922
11
133.363
21
-99.5
0
LINE
8
BLACK
6
CONTINUOUS
10
133.363
20
-99.5
11
132.637
21
-99.5
0
LINE
8
BLACK
6
CONTINUOUS
10
132.637
20
-99.5
11
132.571
21
-99.4923
0
LINE
8
BLACK
6
CONTINUOUS
10
132.571
20
-99.4923
11
132.475
21
-99.4498
0
LINE
8
BLACK
6
CONTINUOUS
10
132.475
20
-99.4498
11
132.401
21
-99.3754
0
LINE
8
BLACK
6
CONTINUOUS
10
132.401
20
-99.3754
11
132.358
21
-99.2793
0
LINE
8
BLACK
6
CONTINUOUS
10
132.358
20
-99.2793
11
132.35
21
-99.2127
0
LINE
8
BLACK
6
CONTINUOUS
10
132.35
20
-99.2127
11
132.35
21
-98.4873
0
LINE
8
BLACK
6
CONTINUOUS
10
132.35
20
-98.4873
11
132.358
21
-98.4212
0
LINE
8
BLACK
6
CONTINUOUS
10
132.358
20
-98.4212
11
132.4
21
-98.325
0
LINE
8
BLACK
6
CONTINUOUS
10
132.4
20
-98.325
11
132.475
21
-98.2505
0
LINE
8
BLACK
6
CONTINUOUS
10
132.475
20
-98.2505
11
132.571
21
-98.2078
0
LINE
8
BLACK
6
CONTINUOUS
10
132.571
20
-98.2078
11
132.637
21
-98.2
0
LINE
8
BLACK
6
CONTINUOUS
10
132.637
20
-98.2
11
133.363
21
-98.2
0
LINE
8
BLACK
6
CONTINUOUS
10
133.363
20
-98.2
11
133.429
21
-98.2077
0
LINE
8
BLACK
6
CONTINUOUS
10
131.529
20
-98.2077
11
131.625
21
-98.2502
0
LINE
8
BLACK
6
CONTINUOUS
10
131.625
20
-98.2502
11
131.699
21
-98.3246
0
LINE
8
BLACK
6
CONTINUOUS
10
131.699
20
-98.3246
11
131.742
21
-98.4207
0
LINE
8
BLACK
6
CONTINUOUS
10
131.742
20
-98.4207
11
131.75
21
-98.4873
0
LINE
8
BLACK
6
CONTINUOUS
10
131.75
20
-98.4873
11
131.75
21
-99.2127
0
LINE
8
BLACK
6
CONTINUOUS
10
131.75
20
-99.2127
11
131.742
21
-99.2788
0
LINE
8
BLACK
6
CONTINUOUS
10
131.742
20
-99.2788
11
131.7
21
-99.375
0
LINE
8
BLACK
6
CONTINUOUS
10
131.7
20
-99.375
11
131.625
21
-99.4495
0
LINE
8
BLACK
6
CONTINUOUS
10
131.625
20
-99.4495
11
131.529
21
-99.4922
0
LINE
8
BLACK
6
CONTINUOUS
10
131.529
20
-99.4922
11
131.463
21
-99.5
0
LINE
8
BLACK
6
CONTINUOUS
10
131.463
20
-99.5
11
130.737
21
-99.5
0
LINE
8
BLACK
6
CONTINUOUS
10
130.737
20
-99.5
11
130.671
21
-99.4923
0
LINE
8
BLACK
6
CONTINUOUS
10
130.671
20
-99.4923
11
130.575
21
-99.4498
0
LINE
8
BLACK
6
CONTINUOUS
10
130.575
20
-99.4498
11
130.501
21
-99.3754
0
LINE
8
BLACK
6
CONTINUOUS
10
130.501
20
-99.3754
11
130.458
21
-99.2793
0
LINE
8
BLACK
6
CONTINUOUS
10
130.458
20
-99.2793
11
130.45
21
-99.2127
0
LINE
8
BLACK
6
CONTINUOUS
10
130.45
20
-99.2127
11
130.45
21
-98.4873
0
LINE
8
BLACK
6
CONTINUOUS
10
130.45
20
-98.4873
11
130.458
21
-98.4212
0
LINE
8
BLACK
6
CONTINUOUS
10
130.458
20
-98.4212
11
130.5
21
-98.325
0
LINE
8
BLACK
6
CONTINUOUS
10
130.5
20
-98.325
11
130.575
21
-98.2505
0
LINE
8
BLACK
6
CONTINUOUS
10
130.575
20
-98.2505
11
130.671
21
-98.2078
0
LINE
8
BLACK
6
CONTINUOUS
10
130.671
20
-98.2078
11
130.737
21
-98.2
0
LINE
8
BLACK
6
CONTINUOUS
10
130.737
20
-98.2
11
131.463
21
-98.2
0
LINE
8
BLACK
6
CONTINUOUS
10
131.463
20
-98.2
11
131.529
21
-98.2077
0
LINE
8
BLACK
6
CONTINUOUS
10
135.894
20
-99.2038
11
135.91
21
-99.2146
0
LINE
8
BLACK
6
CONTINUOUS
10
135.91
20
-99.2146
11
135.921
21
-99.2309
0
LINE
8
BLACK
6
CONTINUOUS
10
135.921
20
-99.2309
11
135.925
21
-99.25
0
LINE
8
BLACK
6
CONTINUOUS
10
135.925
20
-99.25
11
135.925
21
-99.35
0
LINE
8
BLACK
6
CONTINUOUS
10
135.925
20
-99.35
11
135.921
21
-99.3691
0
LINE
8
BLACK
6
CONTINUOUS
10
135.921
20
-99.3691
11
135.91
21
-99.3854
0
LINE
8
BLACK
6
CONTINUOUS
10
135.91
20
-99.3854
11
135.894
21
-99.3962
0
LINE
8
BLACK
6
CONTINUOUS
10
135.894
20
-99.3962
11
135.875
21
-99.4
0
LINE
8
BLACK
6
CONTINUOUS
10
135.875
20
-99.4
11
135.1
21
-99.4
0
LINE
8
BLACK
6
CONTINUOUS
10
135.1
20
-99.4
11
135.081
21
-99.3962
0
LINE
8
BLACK
6
CONTINUOUS
10
135.081
20
-99.3962
11
135.065
21
-99.3854
0
LINE
8
BLACK
6
CONTINUOUS
10
135.065
20
-99.3854
11
135.054
21
-99.3691
0
LINE
8
BLACK
6
CONTINUOUS
10
135.054
20
-99.3691
11
135.05
21
-99.35
0
LINE
8
BLACK
6
CONTINUOUS
10
135.05
20
-99.35
11
135.05
21
-99.25
0
LINE
8
BLACK
6
CONTINUOUS
10
135.05
20
-99.25
11
135.054
21
-99.2309
0
LINE
8
BLACK
6
CONTINUOUS
10
135.054
20
-99.2309
11
135.065
21
-99.2146
0
LINE
8
BLACK
6
CONTINUOUS
10
135.065
20
-99.2146
11
135.081
21
-99.2038
0
LINE
8
BLACK
6
CONTINUOUS
10
135.081
20
-99.2038
11
135.1
21
-99.2
0
LINE
8
BLACK
6
CONTINUOUS
10
135.1
20
-99.2
11
135.875
21
-99.2
0
LINE
8
BLACK
6
CONTINUOUS
10
135.875
20
-99.2
11
135.894
21
-99.2038
0
LINE
8
BLACK
6
CONTINUOUS
10
129.019
20
-99.2038
11
129.035
21
-99.2146
0
LINE
8
BLACK
6
CONTINUOUS
10
129.035
20
-99.2146
11
129.046
21
-99.2309
0
LINE
8
BLACK
6
CONTINUOUS
10
129.046
20
-99.2309
11
129.05
21
-99.25
0
LINE
8
BLACK
6
CONTINUOUS
10
129.05
20
-99.25
11
129.05
21
-99.35
0
LINE
8
BLACK
6
CONTINUOUS
10
129.05
20
-99.35
11
129.046
21
-99.3691
0
LINE
8
BLACK
6
CONTINUOUS
10
129.046
20
-99.3691
11
129.035
21
-99.3854
0
LINE
8
BLACK
6
CONTINUOUS
10
129.035
20
-99.3854
11
129.019
21
-99.3962
0
LINE
8
BLACK
6
CONTINUOUS
10
129.019
20
-99.3962
11
129
21
-99.4
0
LINE
8
BLACK
6
CONTINUOUS
10
129
20
-99.4
11
128.225
21
-99.4
0
LINE
8
BLACK
6
CONTINUOUS
10
128.225
20
-99.4
11
128.206
21
-99.3962
0
LINE
8
BLACK
6
CONTINUOUS
10
128.206
20
-99.3962
11
128.19
21
-99.3854
0
LINE
8
BLACK
6
CONTINUOUS
10
128.19
20
-99.3854
11
128.179
21
-99.3691
0
LINE
8
BLACK
6
CONTINUOUS
10
128.179
20
-99.3691
11
128.175
21
-99.35
0
LINE
8
BLACK
6
CONTINUOUS
10
128.175
20
-99.35
11
128.175
21
-99.25
0
LINE
8
BLACK
6
CONTINUOUS
10
128.175
20
-99.25
11
128.179
21
-99.2309
0
LINE
8
BLACK
6
CONTINUOUS
10
128.179
20
-99.2309
11
128.19
21
-99.2146
0
LINE
8
BLACK
6
CONTINUOUS
10
128.19
20
-99.2146
11
128.206
21
-99.2038
0
LINE
8
BLACK
6
CONTINUOUS
10
128.206
20
-99.2038
11
128.225
21
-99.2
0
LINE
8
BLACK
6
CONTINUOUS
10
128.225
20
-99.2
11
129
21
-99.2
0
LINE
8
BLACK
6
CONTINUOUS
10
129
20
-99.2
11
129.019
21
-99.2038
0
LINE
8
BLACK
6
CONTINUOUS
10
113.958
20
-98.8727
11
113.969
21
-98.8805
0
LINE
8
BLACK
6
CONTINUOUS
10
113.969
20
-98.8805
11
113.977
21
-98.8922
0
LINE
8
BLACK
6
CONTINUOUS
10
113.977
20
-98.8922
11
113.98
21
-98.906
0
LINE
8
BLACK
6
CONTINUOUS
10
113.98
20
-98.906
11
113.98
21
-99.194
0
LINE
8
BLACK
6
CONTINUOUS
10
113.98
20
-99.194
11
113.977
21
-99.2078
0
LINE
8
BLACK
6
CONTINUOUS
10
113.977
20
-99.2078
11
113.969
21
-99.2195
0
LINE
8
BLACK
6
CONTINUOUS
10
113.969
20
-99.2195
11
113.958
21
-99.2273
0
LINE
8
BLACK
6
CONTINUOUS
10
113.958
20
-99.2273
11
113.944
21
-99.23
0
LINE
8
BLACK
6
CONTINUOUS
10
113.944
20
-99.23
11
113.556
21
-99.23
0
LINE
8
BLACK
6
CONTINUOUS
10
113.556
20
-99.23
11
113.542
21
-99.2273
0
LINE
8
BLACK
6
CONTINUOUS
10
113.542
20
-99.2273
11
113.531
21
-99.2195
0
LINE
8
BLACK
6
CONTINUOUS
10
113.531
20
-99.2195
11
113.523
21
-99.2078
0
LINE
8
BLACK
6
CONTINUOUS
10
113.523
20
-99.2078
11
113.52
21
-99.194
0
LINE
8
BLACK
6
CONTINUOUS
10
113.52
20
-99.194
11
113.52
21
-98.906
0
LINE
8
BLACK
6
CONTINUOUS
10
113.52
20
-98.906
11
113.523
21
-98.8922
0
LINE
8
BLACK
6
CONTINUOUS
10
113.523
20
-98.8922
11
113.531
21
-98.8805
0
LINE
8
BLACK
6
CONTINUOUS
10
113.531
20
-98.8805
11
113.542
21
-98.8727
0
LINE
8
BLACK
6
CONTINUOUS
10
113.542
20
-98.8727
11
113.556
21
-98.87
0
LINE
8
BLACK
6
CONTINUOUS
10
113.556
20
-98.87
11
113.944
21
-98.87
0
LINE
8
BLACK
6
CONTINUOUS
10
113.944
20
-98.87
11
113.958
21
-98.8727
0
LINE
8
BLACK
6
CONTINUOUS
10
127.602
20
-98.6234
11
127.617
21
-98.6332
0
LINE
8
BLACK
6
CONTINUOUS
10
127.617
20
-98.6332
11
127.627
21
-98.6478
0
LINE
8
BLACK
6
CONTINUOUS
10
127.627
20
-98.6478
11
127.63
21
-98.665
0
LINE
8
BLACK
6
CONTINUOUS
10
127.63
20
-98.665
11
127.63
21
-99.035
0
LINE
8
BLACK
6
CONTINUOUS
10
127.63
20
-99.035
11
127.627
21
-99.0522
0
LINE
8
BLACK
6
CONTINUOUS
10
127.627
20
-99.0522
11
127.617
21
-99.0668
0
LINE
8
BLACK
6
CONTINUOUS
10
127.617
20
-99.0668
11
127.602
21
-99.0766
0
LINE
8
BLACK
6
CONTINUOUS
10
127.602
20
-99.0766
11
127.585
21
-99.08
0
LINE
8
BLACK
6
CONTINUOUS
10
127.585
20
-99.08
11
127.315
21
-99.08
0
LINE
8
BLACK
6
CONTINUOUS
10
127.315
20
-99.08
11
127.298
21
-99.0766
0
LINE
8
BLACK
6
CONTINUOUS
10
127.298
20
-99.0766
11
127.283
21
-99.0668
0
LINE
8
BLACK
6
CONTINUOUS
10
127.283
20
-99.0668
11
127.273
21
-99.0522
0
LINE
8
BLACK
6
CONTINUOUS
10
127.273
20
-99.0522
11
127.27
21
-99.035
0
LINE
8
BLACK
6
CONTINUOUS
10
127.27
20
-99.035
11
127.27
21
-98.665
0
LINE
8
BLACK
6
CONTINUOUS
10
127.27
20
-98.665
11
127.273
21
-98.6478
0
LINE
8
BLACK
6
CONTINUOUS
10
127.273
20
-98.6478
11
127.283
21
-98.6332
0
LINE
8
BLACK
6
CONTINUOUS
10
127.283
20
-98.6332
11
127.298
21
-98.6234
0
LINE
8
BLACK
6
CONTINUOUS
10
127.298
20
-98.6234
11
127.315
21
-98.62
0
LINE
8
BLACK
6
CONTINUOUS
10
127.315
20
-98.62
11
127.585
21
-98.62
0
LINE
8
BLACK
6
CONTINUOUS
10
127.585
20
-98.62
11
127.602
21
-98.6234
0
LINE
8
BLACK
6
CONTINUOUS
10
126.702
20
-98.6234
11
126.717
21
-98.6332
0
LINE
8
BLACK
6
CONTINUOUS
10
126.717
20
-98.6332
11
126.727
21
-98.6478
0
LINE
8
BLACK
6
CONTINUOUS
10
126.727
20
-98.6478
11
126.73
21
-98.665
0
LINE
8
BLACK
6
CONTINUOUS
10
126.73
20
-98.665
11
126.73
21
-99.035
0
LINE
8
BLACK
6
CONTINUOUS
10
126.73
20
-99.035
11
126.727
21
-99.0522
0
LINE
8
BLACK
6
CONTINUOUS
10
126.727
20
-99.0522
11
126.717
21
-99.0668
0
LINE
8
BLACK
6
CONTINUOUS
10
126.717
20
-99.0668
11
126.702
21
-99.0766
0
LINE
8
BLACK
6
CONTINUOUS
10
126.702
20
-99.0766
11
126.685
21
-99.08
0
LINE
8
BLACK
6
CONTINUOUS
10
126.685
20
-99.08
11
126.415
21
-99.08
0
LINE
8
BLACK
6
CONTINUOUS
10
126.415
20
-99.08
11
126.398
21
-99.0766
0
LINE
8
BLACK
6
CONTINUOUS
10
126.398
20
-99.0766
11
126.383
21
-99.0668
0
LINE
8
BLACK
6
CONTINUOUS
10
126.383
20
-99.0668
11
126.373
21
-99.0522
0
LINE
8
BLACK
6
CONTINUOUS
10
126.373
20
-99.0522
11
126.37
21
-99.035
0
LINE
8
BLACK
6
CONTINUOUS
10
126.37
20
-99.035
11
126.37
21
-98.665
0
LINE
8
BLACK
6
CONTINUOUS
10
126.37
20
-98.665
11
126.373
21
-98.6478
0
LINE
8
BLACK
6
CONTINUOUS
10
126.373
20
-98.6478
11
126.383
21
-98.6332
0
LINE
8
BLACK
6
CONTINUOUS
10
126.383
20
-98.6332
11
126.398
21
-98.6234
0
LINE
8
BLACK
6
CONTINUOUS
10
126.398
20
-98.6234
11
126.415
21
-98.62
0
LINE
8
BLACK
6
CONTINUOUS
10
126.415
20
-98.62
11
126.685
21
-98.62
0
LINE
8
BLACK
6
CONTINUOUS
10
126.685
20
-98.62
11
126.702
21
-98.6234
0
LINE
8
BLACK
6
CONTINUOUS
10
129.019
20
-98.8038
11
129.035
21
-98.8146
0
LINE
8
BLACK
6
CONTINUOUS
10
129.035
20
-98.8146
11
129.046
21
-98.8309
0
LINE
8
BLACK
6
CONTINUOUS
10
129.046
20
-98.8309
11
129.05
21
-98.85
0
LINE
8
BLACK
6
CONTINUOUS
10
129.05
20
-98.85
11
129.05
21
-98.95
0
LINE
8
BLACK
6
CONTINUOUS
10
129.05
20
-98.95
11
129.046
21
-98.9691
0
LINE
8
BLACK
6
CONTINUOUS
10
129.046
20
-98.9691
11
129.035
21
-98.9854
0
LINE
8
BLACK
6
CONTINUOUS
10
129.035
20
-98.9854
11
129.019
21
-98.9962
0
LINE
8
BLACK
6
CONTINUOUS
10
129.019
20
-98.9962
11
129
21
-99
0
LINE
8
BLACK
6
CONTINUOUS
10
129
20
-99
11
128.225
21
-99
0
LINE
8
BLACK
6
CONTINUOUS
10
128.225
20
-99
11
128.206
21
-98.9962
0
LINE
8
BLACK
6
CONTINUOUS
10
128.206
20
-98.9962
11
128.19
21
-98.9854
0
LINE
8
BLACK
6
CONTINUOUS
10
128.19
20
-98.9854
11
128.179
21
-98.9691
0
LINE
8
BLACK
6
CONTINUOUS
10
128.179
20
-98.9691
11
128.175
21
-98.95
0
LINE
8
BLACK
6
CONTINUOUS
10
128.175
20
-98.95
11
128.175
21
-98.85
0
LINE
8
BLACK
6
CONTINUOUS
10
128.175
20
-98.85
11
128.179
21
-98.8309
0
LINE
8
BLACK
6
CONTINUOUS
10
128.179
20
-98.8309
11
128.19
21
-98.8146
0
LINE
8
BLACK
6
CONTINUOUS
10
128.19
20
-98.8146
11
128.206
21
-98.8038
0
LINE
8
BLACK
6
CONTINUOUS
10
128.206
20
-98.8038
11
128.225
21
-98.8
0
LINE
8
BLACK
6
CONTINUOUS
10
128.225
20
-98.8
11
129
21
-98.8
0
LINE
8
BLACK
6
CONTINUOUS
10
129
20
-98.8
11
129.019
21
-98.8038
0
LINE
8
BLACK
6
CONTINUOUS
10
135.894
20
-98.8038
11
135.91
21
-98.8146
0
LINE
8
BLACK
6
CONTINUOUS
10
135.91
20
-98.8146
11
135.921
21
-98.8309
0
LINE
8
BLACK
6
CONTINUOUS
10
135.921
20
-98.8309
11
135.925
21
-98.85
0
LINE
8
BLACK
6
CONTINUOUS
10
135.925
20
-98.85
11
135.925
21
-98.95
0
LINE
8
BLACK
6
CONTINUOUS
10
135.925
20
-98.95
11
135.921
21
-98.9691
0
LINE
8
BLACK
6
CONTINUOUS
10
135.921
20
-98.9691
11
135.91
21
-98.9854
0
LINE
8
BLACK
6
CONTINUOUS
10
135.91
20
-98.9854
11
135.894
21
-98.9962
0
LINE
8
BLACK
6
CONTINUOUS
10
135.894
20
-98.9962
11
135.875
21
-99
0
LINE
8
BLACK
6
CONTINUOUS
10
135.875
20
-99
11
135.1
21
-99
0
LINE
8
BLACK
6
CONTINUOUS
10
135.1
20
-99
11
135.081
21
-98.9962
0
LINE
8
BLACK
6
CONTINUOUS
10
135.081
20
-98.9962
11
135.065
21
-98.9854
0
LINE
8
BLACK
6
CONTINUOUS
10
135.065
20
-98.9854
11
135.054
21
-98.9691
0
LINE
8
BLACK
6
CONTINUOUS
10
135.054
20
-98.9691
11
135.05
21
-98.95
0
LINE
8
BLACK
6
CONTINUOUS
10
135.05
20
-98.95
11
135.05
21
-98.85
0
LINE
8
BLACK
6
CONTINUOUS
10
135.05
20
-98.85
11
135.054
21
-98.8309
0
LINE
8
BLACK
6
CONTINUOUS
10
135.054
20
-98.8309
11
135.065
21
-98.8146
0
LINE
8
BLACK
6
CONTINUOUS
10
135.065
20
-98.8146
11
135.081
21
-98.8038
0
LINE
8
BLACK
6
CONTINUOUS
10
135.081
20
-98.8038
11
135.1
21
-98.8
0
LINE
8
BLACK
6
CONTINUOUS
10
135.1
20
-98.8
11
135.875
21
-98.8
0
LINE
8
BLACK
6
CONTINUOUS
10
135.875
20
-98.8
11
135.894
21
-98.8038
0
LINE
8
BLACK
6
CONTINUOUS
10
137.708
20
-98.5227
11
137.719
21
-98.5305
0
LINE
8
BLACK
6
CONTINUOUS
10
137.719
20
-98.5305
11
137.727
21
-98.5422
0
LINE
8
BLACK
6
CONTINUOUS
10
137.727
20
-98.5422
11
137.73
21
-98.556
0
LINE
8
BLACK
6
CONTINUOUS
10
137.73
20
-98.556
11
137.73
21
-98.944
0
LINE
8
BLACK
6
CONTINUOUS
10
137.73
20
-98.944
11
137.727
21
-98.9578
0
LINE
8
BLACK
6
CONTINUOUS
10
137.727
20
-98.9578
11
137.719
21
-98.9695
0
LINE
8
BLACK
6
CONTINUOUS
10
137.719
20
-98.9695
11
137.708
21
-98.9773
0
LINE
8
BLACK
6
CONTINUOUS
10
137.708
20
-98.9773
11
137.694
21
-98.98
0
LINE
8
BLACK
6
CONTINUOUS
10
137.694
20
-98.98
11
137.406
21
-98.98
0
LINE
8
BLACK
6
CONTINUOUS
10
137.406
20
-98.98
11
137.392
21
-98.9773
0
LINE
8
BLACK
6
CONTINUOUS
10
137.392
20
-98.9773
11
137.381
21
-98.9695
0
LINE
8
BLACK
6
CONTINUOUS
10
137.381
20
-98.9695
11
137.373
21
-98.9578
0
LINE
8
BLACK
6
CONTINUOUS
10
137.373
20
-98.9578
11
137.37
21
-98.944
0
LINE
8
BLACK
6
CONTINUOUS
10
137.37
20
-98.944
11
137.37
21
-98.556
0
LINE
8
BLACK
6
CONTINUOUS
10
137.37
20
-98.556
11
137.373
21
-98.5422
0
LINE
8
BLACK
6
CONTINUOUS
10
137.373
20
-98.5422
11
137.381
21
-98.5305
0
LINE
8
BLACK
6
CONTINUOUS
10
137.381
20
-98.5305
11
137.392
21
-98.5227
0
LINE
8
BLACK
6
CONTINUOUS
10
137.392
20
-98.5227
11
137.406
21
-98.52
0
LINE
8
BLACK
6
CONTINUOUS
10
137.406
20
-98.52
11
137.694
21
-98.52
0
LINE
8
BLACK
6
CONTINUOUS
10
137.694
20
-98.52
11
137.708
21
-98.5227
0
LINE
8
BLACK
6
CONTINUOUS
10
136.808
20
-98.5227
11
136.819
21
-98.5305
0
LINE
8
BLACK
6
CONTINUOUS
10
136.819
20
-98.5305
11
136.827
21
-98.5422
0
LINE
8
BLACK
6
CONTINUOUS
10
136.827
20
-98.5422
11
136.83
21
-98.556
0
LINE
8
BLACK
6
CONTINUOUS
10
136.83
20
-98.556
11
136.83
21
-98.944
0
LINE
8
BLACK
6
CONTINUOUS
10
136.83
20
-98.944
11
136.827
21
-98.9578
0
LINE
8
BLACK
6
CONTINUOUS
10
136.827
20
-98.9578
11
136.819
21
-98.9695
0
LINE
8
BLACK
6
CONTINUOUS
10
136.819
20
-98.9695
11
136.808
21
-98.9773
0
LINE
8
BLACK
6
CONTINUOUS
10
136.808
20
-98.9773
11
136.794
21
-98.98
0
LINE
8
BLACK
6
CONTINUOUS
10
136.794
20
-98.98
11
136.506
21
-98.98
0
LINE
8
BLACK
6
CONTINUOUS
10
136.506
20
-98.98
11
136.492
21
-98.9773
0
LINE
8
BLACK
6
CONTINUOUS
10
136.492
20
-98.9773
11
136.481
21
-98.9695
0
LINE
8
BLACK
6
CONTINUOUS
10
136.481
20
-98.9695
11
136.473
21
-98.9578
0
LINE
8
BLACK
6
CONTINUOUS
10
136.473
20
-98.9578
11
136.47
21
-98.944
0
LINE
8
BLACK
6
CONTINUOUS
10
136.47
20
-98.944
11
136.47
21
-98.556
0
LINE
8
BLACK
6
CONTINUOUS
10
136.47
20
-98.556
11
136.473
21
-98.5422
0
LINE
8
BLACK
6
CONTINUOUS
10
136.473
20
-98.5422
11
136.481
21
-98.5305
0
LINE
8
BLACK
6
CONTINUOUS
10
136.481
20
-98.5305
11
136.492
21
-98.5227
0
LINE
8
BLACK
6
CONTINUOUS
10
136.492
20
-98.5227
11
136.506
21
-98.52
0
LINE
8
BLACK
6
CONTINUOUS
10
136.506
20
-98.52
11
136.794
21
-98.52
0
LINE
8
BLACK
6
CONTINUOUS
10
136.794
20
-98.52
11
136.808
21
-98.5227
0
LINE
8
BLACK
6
CONTINUOUS
10
129.019
20
-98.4038
11
129.035
21
-98.4146
0
LINE
8
BLACK
6
CONTINUOUS
10
129.035
20
-98.4146
11
129.046
21
-98.4309
0
LINE
8
BLACK
6
CONTINUOUS
10
129.046
20
-98.4309
11
129.05
21
-98.45
0
LINE
8
BLACK
6
CONTINUOUS
10
129.05
20
-98.45
11
129.05
21
-98.55
0
LINE
8
BLACK
6
CONTINUOUS
10
129.05
20
-98.55
11
129.046
21
-98.5691
0
LINE
8
BLACK
6
CONTINUOUS
10
129.046
20
-98.5691
11
129.035
21
-98.5854
0
LINE
8
BLACK
6
CONTINUOUS
10
129.035
20
-98.5854
11
129.019
21
-98.5962
0
LINE
8
BLACK
6
CONTINUOUS
10
129.019
20
-98.5962
11
129
21
-98.6
0
LINE
8
BLACK
6
CONTINUOUS
10
129
20
-98.6
11
128.225
21
-98.6
0
LINE
8
BLACK
6
CONTINUOUS
10
128.225
20
-98.6
11
128.206
21
-98.5962
0
LINE
8
BLACK
6
CONTINUOUS
10
128.206
20
-98.5962
11
128.19
21
-98.5854
0
LINE
8
BLACK
6
CONTINUOUS
10
128.19
20
-98.5854
11
128.179
21
-98.5691
0
LINE
8
BLACK
6
CONTINUOUS
10
128.179
20
-98.5691
11
128.175
21
-98.55
0
LINE
8
BLACK
6
CONTINUOUS
10
128.175
20
-98.55
11
128.175
21
-98.45
0
LINE
8
BLACK
6
CONTINUOUS
10
128.175
20
-98.45
11
128.179
21
-98.4309
0
LINE
8
BLACK
6
CONTINUOUS
10
128.179
20
-98.4309
11
128.19
21
-98.4146
0
LINE
8
BLACK
6
CONTINUOUS
10
128.19
20
-98.4146
11
128.206
21
-98.4038
0
LINE
8
BLACK
6
CONTINUOUS
10
128.206
20
-98.4038
11
128.225
21
-98.4
0
LINE
8
BLACK
6
CONTINUOUS
10
128.225
20
-98.4
11
129
21
-98.4
0
LINE
8
BLACK
6
CONTINUOUS
10
129
20
-98.4
11
129.019
21
-98.4038
0
LINE
8
BLACK
6
CONTINUOUS
10
135.894
20
-98.4038
11
135.91
21
-98.4146
0
LINE
8
BLACK
6
CONTINUOUS
10
135.91
20
-98.4146
11
135.921
21
-98.4309
0
LINE
8
BLACK
6
CONTINUOUS
10
135.921
20
-98.4309
11
135.925
21
-98.45
0
LINE
8
BLACK
6
CONTINUOUS
10
135.925
20
-98.45
11
135.925
21
-98.55
0
LINE
8
BLACK
6
CONTINUOUS
10
135.925
20
-98.55
11
135.921
21
-98.5691
0
LINE
8
BLACK
6
CONTINUOUS
10
135.921
20
-98.5691
11
135.91
21
-98.5854
0
LINE
8
BLACK
6
CONTINUOUS
10
135.91
20
-98.5854
11
135.894
21
-98.5962
0
LINE
8
BLACK
6
CONTINUOUS
10
135.894
20
-98.5962
11
135.875
21
-98.6
0
LINE
8
BLACK
6
CONTINUOUS
10
135.875
20
-98.6
11
135.1
21
-98.6
0
LINE
8
BLACK
6
CONTINUOUS
10
135.1
20
-98.6
11
135.081
21
-98.5962
0
LINE
8
BLACK
6
CONTINUOUS
10
135.081
20
-98.5962
11
135.065
21
-98.5854
0
LINE
8
BLACK
6
CONTINUOUS
10
135.065
20
-98.5854
11
135.054
21
-98.5691
0
LINE
8
BLACK
6
CONTINUOUS
10
135.054
20
-98.5691
11
135.05
21
-98.55
0
LINE
8
BLACK
6
CONTINUOUS
10
135.05
20
-98.55
11
135.05
21
-98.45
0
LINE
8
BLACK
6
CONTINUOUS
10
135.05
20
-98.45
11
135.054
21
-98.4309
0
LINE
8
BLACK
6
CONTINUOUS
10
135.054
20
-98.4309
11
135.065
21
-98.4146
0
LINE
8
BLACK
6
CONTINUOUS
10
135.065
20
-98.4146
11
135.081
21
-98.4038
0
LINE
8
BLACK
6
CONTINUOUS
10
135.081
20
-98.4038
11
135.1
21
-98.4
0
LINE
8
BLACK
6
CONTINUOUS
10
135.1
20
-98.4
11
135.875
21
-98.4
0
LINE
8
BLACK
6
CONTINUOUS
10
135.875
20
-98.4
11
135.894
21
-98.4038
0
LINE
8
BLACK
6
CONTINUOUS
10
123.602
20
-98.0234
11
123.617
21
-98.0332
0
LINE
8
BLACK
6
CONTINUOUS
10
123.617
20
-98.0332
11
123.627
21
-98.0478
0
LINE
8
BLACK
6
CONTINUOUS
10
123.627
20
-98.0478
11
123.63
21
-98.065
0
LINE
8
BLACK
6
CONTINUOUS
10
123.63
20
-98.065
11
123.63
21
-98.435
0
LINE
8
BLACK
6
CONTINUOUS
10
123.63
20
-98.435
11
123.627
21
-98.4522
0
LINE
8
BLACK
6
CONTINUOUS
10
123.627
20
-98.4522
11
123.617
21
-98.4668
0
LINE
8
BLACK
6
CONTINUOUS
10
123.617
20
-98.4668
11
123.602
21
-98.4766
0
LINE
8
BLACK
6
CONTINUOUS
10
123.602
20
-98.4766
11
123.585
21
-98.48
0
LINE
8
BLACK
6
CONTINUOUS
10
123.585
20
-98.48
11
123.315
21
-98.48
0
LINE
8
BLACK
6
CONTINUOUS
10
123.315
20
-98.48
11
123.298
21
-98.4766
0
LINE
8
BLACK
6
CONTINUOUS
10
123.298
20
-98.4766
11
123.283
21
-98.4668
0
LINE
8
BLACK
6
CONTINUOUS
10
123.283
20
-98.4668
11
123.273
21
-98.4522
0
LINE
8
BLACK
6
CONTINUOUS
10
123.273
20
-98.4522
11
123.27
21
-98.435
0
LINE
8
BLACK
6
CONTINUOUS
10
123.27
20
-98.435
11
123.27
21
-98.065
0
LINE
8
BLACK
6
CONTINUOUS
10
123.27
20
-98.065
11
123.273
21
-98.0478
0
LINE
8
BLACK
6
CONTINUOUS
10
123.273
20
-98.0478
11
123.283
21
-98.0332
0
LINE
8
BLACK
6
CONTINUOUS
10
123.283
20
-98.0332
11
123.298
21
-98.0234
0
LINE
8
BLACK
6
CONTINUOUS
10
123.298
20
-98.0234
11
123.315
21
-98.02
0
LINE
8
BLACK
6
CONTINUOUS
10
123.315
20
-98.02
11
123.585
21
-98.02
0
LINE
8
BLACK
6
CONTINUOUS
10
123.585
20
-98.02
11
123.602
21
-98.0234
0
LINE
8
BLACK
6
CONTINUOUS
10
122.702
20
-98.0234
11
122.717
21
-98.0332
0
LINE
8
BLACK
6
CONTINUOUS
10
122.717
20
-98.0332
11
122.727
21
-98.0478
0
LINE
8
BLACK
6
CONTINUOUS
10
122.727
20
-98.0478
11
122.73
21
-98.065
0
LINE
8
BLACK
6
CONTINUOUS
10
122.73
20
-98.065
11
122.73
21
-98.435
0
LINE
8
BLACK
6
CONTINUOUS
10
122.73
20
-98.435
11
122.727
21
-98.4522
0
LINE
8
BLACK
6
CONTINUOUS
10
122.727
20
-98.4522
11
122.717
21
-98.4668
0
LINE
8
BLACK
6
CONTINUOUS
10
122.717
20
-98.4668
11
122.702
21
-98.4766
0
LINE
8
BLACK
6
CONTINUOUS
10
122.702
20
-98.4766
11
122.685
21
-98.48
0
LINE
8
BLACK
6
CONTINUOUS
10
122.685
20
-98.48
11
122.415
21
-98.48
0
LINE
8
BLACK
6
CONTINUOUS
10
122.415
20
-98.48
11
122.398
21
-98.4766
0
LINE
8
BLACK
6
CONTINUOUS
10
122.398
20
-98.4766
11
122.383
21
-98.4668
0
LINE
8
BLACK
6
CONTINUOUS
10
122.383
20
-98.4668
11
122.373
21
-98.4522
0
LINE
8
BLACK
6
CONTINUOUS
10
122.373
20
-98.4522
11
122.37
21
-98.435
0
LINE
8
BLACK
6
CONTINUOUS
10
122.37
20
-98.435
11
122.37
21
-98.065
0
LINE
8
BLACK
6
CONTINUOUS
10
122.37
20
-98.065
11
122.373
21
-98.0478
0
LINE
8
BLACK
6
CONTINUOUS
10
122.373
20
-98.0478
11
122.383
21
-98.0332
0
LINE
8
BLACK
6
CONTINUOUS
10
122.383
20
-98.0332
11
122.398
21
-98.0234
0
LINE
8
BLACK
6
CONTINUOUS
10
122.398
20
-98.0234
11
122.415
21
-98.02
0
LINE
8
BLACK
6
CONTINUOUS
10
122.415
20
-98.02
11
122.685
21
-98.02
0
LINE
8
BLACK
6
CONTINUOUS
10
122.685
20
-98.02
11
122.702
21
-98.0234
0
LINE
8
BLACK
6
CONTINUOUS
10
126.702
20
-97.9234
11
126.717
21
-97.9332
0
LINE
8
BLACK
6
CONTINUOUS
10
126.717
20
-97.9332
11
126.727
21
-97.9478
0
LINE
8
BLACK
6
CONTINUOUS
10
126.727
20
-97.9478
11
126.73
21
-97.965
0
LINE
8
BLACK
6
CONTINUOUS
10
126.73
20
-97.965
11
126.73
21
-98.335
0
LINE
8
BLACK
6
CONTINUOUS
10
126.73
20
-98.335
11
126.727
21
-98.3522
0
LINE
8
BLACK
6
CONTINUOUS
10
126.727
20
-98.3522
11
126.717
21
-98.3668
0
LINE
8
BLACK
6
CONTINUOUS
10
126.717
20
-98.3668
11
126.702
21
-98.3766
0
LINE
8
BLACK
6
CONTINUOUS
10
126.702
20
-98.3766
11
126.685
21
-98.38
0
LINE
8
BLACK
6
CONTINUOUS
10
126.685
20
-98.38
11
126.415
21
-98.38
0
LINE
8
BLACK
6
CONTINUOUS
10
126.415
20
-98.38
11
126.398
21
-98.3766
0
LINE
8
BLACK
6
CONTINUOUS
10
126.398
20
-98.3766
11
126.383
21
-98.3668
0
LINE
8
BLACK
6
CONTINUOUS
10
126.383
20
-98.3668
11
126.373
21
-98.3522
0
LINE
8
BLACK
6
CONTINUOUS
10
126.373
20
-98.3522
11
126.37
21
-98.335
0
LINE
8
BLACK
6
CONTINUOUS
10
126.37
20
-98.335
11
126.37
21
-97.965
0
LINE
8
BLACK
6
CONTINUOUS
10
126.37
20
-97.965
11
126.373
21
-97.9478
0
LINE
8
BLACK
6
CONTINUOUS
10
126.373
20
-97.9478
11
126.383
21
-97.9332
0
LINE
8
BLACK
6
CONTINUOUS
10
126.383
20
-97.9332
11
126.398
21
-97.9234
0
LINE
8
BLACK
6
CONTINUOUS
10
126.398
20
-97.9234
11
126.415
21
-97.92
0
LINE
8
BLACK
6
CONTINUOUS
10
126.415
20
-97.92
11
126.685
21
-97.92
0
LINE
8
BLACK
6
CONTINUOUS
10
126.685
20
-97.92
11
126.702
21
-97.9234
0
LINE
8
BLACK
6
CONTINUOUS
10
127.602
20
-97.9234
11
127.617
21
-97.9332
0
LINE
8
BLACK
6
CONTINUOUS
10
127.617
20
-97.9332
11
127.627
21
-97.9478
0
LINE
8
BLACK
6
CONTINUOUS
10
127.627
20
-97.9478
11
127.63
21
-97.965
0
LINE
8
BLACK
6
CONTINUOUS
10
127.63
20
-97.965
11
127.63
21
-98.335
0
LINE
8
BLACK
6
CONTINUOUS
10
127.63
20
-98.335
11
127.627
21
-98.3522
0
LINE
8
BLACK
6
CONTINUOUS
10
127.627
20
-98.3522
11
127.617
21
-98.3668
0
LINE
8
BLACK
6
CONTINUOUS
10
127.617
20
-98.3668
11
127.602
21
-98.3766
0
LINE
8
BLACK
6
CONTINUOUS
10
127.602
20
-98.3766
11
127.585
21
-98.38
0
LINE
8
BLACK
6
CONTINUOUS
10
127.585
20
-98.38
11
127.315
21
-98.38
0
LINE
8
BLACK
6
CONTINUOUS
10
127.315
20
-98.38
11
127.298
21
-98.3766
0
LINE
8
BLACK
6
CONTINUOUS
10
127.298
20
-98.3766
11
127.283
21
-98.3668
0
LINE
8
BLACK
6
CONTINUOUS
10
127.283
20
-98.3668
11
127.273
21
-98.3522
0
LINE
8
BLACK
6
CONTINUOUS
10
127.273
20
-98.3522
11
127.27
21
-98.335
0
LINE
8
BLACK
6
CONTINUOUS
10
127.27
20
-98.335
11
127.27
21
-97.965
0
LINE
8
BLACK
6
CONTINUOUS
10
127.27
20
-97.965
11
127.273
21
-97.9478
0
LINE
8
BLACK
6
CONTINUOUS
10
127.273
20
-97.9478
11
127.283
21
-97.9332
0
LINE
8
BLACK
6
CONTINUOUS
10
127.283
20
-97.9332
11
127.298
21
-97.9234
0
LINE
8
BLACK
6
CONTINUOUS
10
127.298
20
-97.9234
11
127.315
21
-97.92
0
LINE
8
BLACK
6
CONTINUOUS
10
127.315
20
-97.92
11
127.585
21
-97.92
0
LINE
8
BLACK
6
CONTINUOUS
10
127.585
20
-97.92
11
127.602
21
-97.9234
0
LINE
8
BLACK
6
CONTINUOUS
10
137.702
20
-97.8234
11
137.717
21
-97.8332
0
LINE
8
BLACK
6
CONTINUOUS
10
137.717
20
-97.8332
11
137.727
21
-97.8478
0
LINE
8
BLACK
6
CONTINUOUS
10
137.727
20
-97.8478
11
137.73
21
-97.865
0
LINE
8
BLACK
6
CONTINUOUS
10
137.73
20
-97.865
11
137.73
21
-98.235
0
LINE
8
BLACK
6
CONTINUOUS
10
137.73
20
-98.235
11
137.727
21
-98.2522
0
LINE
8
BLACK
6
CONTINUOUS
10
137.727
20
-98.2522
11
137.717
21
-98.2668
0
LINE
8
BLACK
6
CONTINUOUS
10
137.717
20
-98.2668
11
137.702
21
-98.2766
0
LINE
8
BLACK
6
CONTINUOUS
10
137.702
20
-98.2766
11
137.685
21
-98.28
0
LINE
8
BLACK
6
CONTINUOUS
10
137.685
20
-98.28
11
137.415
21
-98.28
0
LINE
8
BLACK
6
CONTINUOUS
10
137.415
20
-98.28
11
137.398
21
-98.2766
0
LINE
8
BLACK
6
CONTINUOUS
10
137.398
20
-98.2766
11
137.383
21
-98.2668
0
LINE
8
BLACK
6
CONTINUOUS
10
137.383
20
-98.2668
11
137.373
21
-98.2522
0
LINE
8
BLACK
6
CONTINUOUS
10
137.373
20
-98.2522
11
137.37
21
-98.235
0
LINE
8
BLACK
6
CONTINUOUS
10
137.37
20
-98.235
11
137.37
21
-97.865
0
LINE
8
BLACK
6
CONTINUOUS
10
137.37
20
-97.865
11
137.373
21
-97.8478
0
LINE
8
BLACK
6
CONTINUOUS
10
137.373
20
-97.8478
11
137.383
21
-97.8332
0
LINE
8
BLACK
6
CONTINUOUS
10
137.383
20
-97.8332
11
137.398
21
-97.8234
0
LINE
8
BLACK
6
CONTINUOUS
10
137.398
20
-97.8234
11
137.415
21
-97.82
0
LINE
8
BLACK
6
CONTINUOUS
10
137.415
20
-97.82
11
137.685
21
-97.82
0
LINE
8
BLACK
6
CONTINUOUS
10
137.685
20
-97.82
11
137.702
21
-97.8234
0
LINE
8
BLACK
6
CONTINUOUS
10
136.802
20
-97.8234
11
136.817
21
-97.8332
0
LINE
8
BLACK
6
CONTINUOUS
10
136.817
20
-97.8332
11
136.827
21
-97.8478
0
LINE
8
BLACK
6
CONTINUOUS
10
136.827
20
-97.8478
11
136.83
21
-97.865
0
LINE
8
BLACK
6
CONTINUOUS
10
136.83
20
-97.865
11
136.83
21
-98.235
0
LINE
8
BLACK
6
CONTINUOUS
10
136.83
20
-98.235
11
136.827
21
-98.2522
0
LINE
8
BLACK
6
CONTINUOUS
10
136.827
20
-98.2522
11
136.817
21
-98.2668
0
LINE
8
BLACK
6
CONTINUOUS
10
136.817
20
-98.2668
11
136.802
21
-98.2766
0
LINE
8
BLACK
6
CONTINUOUS
10
136.802
20
-98.2766
11
136.785
21
-98.28
0
LINE
8
BLACK
6
CONTINUOUS
10
136.785
20
-98.28
11
136.515
21
-98.28
0
LINE
8
BLACK
6
CONTINUOUS
10
136.515
20
-98.28
11
136.498
21
-98.2766
0
LINE
8
BLACK
6
CONTINUOUS
10
136.498
20
-98.2766
11
136.483
21
-98.2668
0
LINE
8
BLACK
6
CONTINUOUS
10
136.483
20
-98.2668
11
136.473
21
-98.2522
0
LINE
8
BLACK
6
CONTINUOUS
10
136.473
20
-98.2522
11
136.47
21
-98.235
0
LINE
8
BLACK
6
CONTINUOUS
10
136.47
20
-98.235
11
136.47
21
-97.865
0
LINE
8
BLACK
6
CONTINUOUS
10
136.47
20
-97.865
11
136.473
21
-97.8478
0
LINE
8
BLACK
6
CONTINUOUS
10
136.473
20
-97.8478
11
136.483
21
-97.8332
0
LINE
8
BLACK
6
CONTINUOUS
10
136.483
20
-97.8332
11
136.498
21
-97.8234
0
LINE
8
BLACK
6
CONTINUOUS
10
136.498
20
-97.8234
11
136.515
21
-97.82
0
LINE
8
BLACK
6
CONTINUOUS
10
136.515
20
-97.82
11
136.785
21
-97.82
0
LINE
8
BLACK
6
CONTINUOUS
10
136.785
20
-97.82
11
136.802
21
-97.8234
0
LINE
8
BLACK
6
CONTINUOUS
10
129.019
20
-98.0038
11
129.035
21
-98.0146
0
LINE
8
BLACK
6
CONTINUOUS
10
129.035
20
-98.0146
11
129.046
21
-98.0309
0
LINE
8
BLACK
6
CONTINUOUS
10
129.046
20
-98.0309
11
129.05
21
-98.05
0
LINE
8
BLACK
6
CONTINUOUS
10
129.05
20
-98.05
11
129.05
21
-98.15
0
LINE
8
BLACK
6
CONTINUOUS
10
129.05
20
-98.15
11
129.046
21
-98.1691
0
LINE
8
BLACK
6
CONTINUOUS
10
129.046
20
-98.1691
11
129.035
21
-98.1854
0
LINE
8
BLACK
6
CONTINUOUS
10
129.035
20
-98.1854
11
129.019
21
-98.1962
0
LINE
8
BLACK
6
CONTINUOUS
10
129.019
20
-98.1962
11
129
21
-98.2
0
LINE
8
BLACK
6
CONTINUOUS
10
129
20
-98.2
11
128.225
21
-98.2
0
LINE
8
BLACK
6
CONTINUOUS
10
128.225
20
-98.2
11
128.206
21
-98.1962
0
LINE
8
BLACK
6
CONTINUOUS
10
128.206
20
-98.1962
11
128.19
21
-98.1854
0
LINE
8
BLACK
6
CONTINUOUS
10
128.19
20
-98.1854
11
128.179
21
-98.1691
0
LINE
8
BLACK
6
CONTINUOUS
10
128.179
20
-98.1691
11
128.175
21
-98.15
0
LINE
8
BLACK
6
CONTINUOUS
10
128.175
20
-98.15
11
128.175
21
-98.05
0
LINE
8
BLACK
6
CONTINUOUS
10
128.175
20
-98.05
11
128.179
21
-98.0309
0
LINE
8
BLACK
6
CONTINUOUS
10
128.179
20
-98.0309
11
128.19
21
-98.0146
0
LINE
8
BLACK
6
CONTINUOUS
10
128.19
20
-98.0146
11
128.206
21
-98.0038
0
LINE
8
BLACK
6
CONTINUOUS
10
128.206
20
-98.0038
11
128.225
21
-98
0
LINE
8
BLACK
6
CONTINUOUS
10
128.225
20
-98
11
129
21
-98
0
LINE
8
BLACK
6
CONTINUOUS
10
129
20
-98
11
129.019
21
-98.0038
0
LINE
8
BLACK
6
CONTINUOUS
10
135.894
20
-98.0038
11
135.91
21
-98.0146
0
LINE
8
BLACK
6
CONTINUOUS
10
135.91
20
-98.0146
11
135.921
21
-98.0309
0
LINE
8
BLACK
6
CONTINUOUS
10
135.921
20
-98.0309
11
135.925
21
-98.05
0
LINE
8
BLACK
6
CONTINUOUS
10
135.925
20
-98.05
11
135.925
21
-98.15
0
LINE
8
BLACK
6
CONTINUOUS
10
135.925
20
-98.15
11
135.921
21
-98.1691
0
LINE
8
BLACK
6
CONTINUOUS
10
135.921
20
-98.1691
11
135.91
21
-98.1854
0
LINE
8
BLACK
6
CONTINUOUS
10
135.91
20
-98.1854
11
135.894
21
-98.1962
0
LINE
8
BLACK
6
CONTINUOUS
10
135.894
20
-98.1962
11
135.875
21
-98.2
0
LINE
8
BLACK
6
CONTINUOUS
10
135.875
20
-98.2
11
135.1
21
-98.2
0
LINE
8
BLACK
6
CONTINUOUS
10
135.1
20
-98.2
11
135.081
21
-98.1962
0
LINE
8
BLACK
6
CONTINUOUS
10
135.081
20
-98.1962
11
135.065
21
-98.1854
0
LINE
8
BLACK
6
CONTINUOUS
10
135.065
20
-98.1854
11
135.054
21
-98.1691
0
LINE
8
BLACK
6
CONTINUOUS
10
135.054
20
-98.1691
11
135.05
21
-98.15
0
LINE
8
BLACK
6
CONTINUOUS
10
135.05
20
-98.15
11
135.05
21
-98.05
0
LINE
8
BLACK
6
CONTINUOUS
10
135.05
20
-98.05
11
135.054
21
-98.0309
0
LINE
8
BLACK
6
CONTINUOUS
10
135.054
20
-98.0309
11
135.065
21
-98.0146
0
LINE
8
BLACK
6
CONTINUOUS
10
135.065
20
-98.0146
11
135.081
21
-98.0038
0
LINE
8
BLACK
6
CONTINUOUS
10
135.081
20
-98.0038
11
135.1
21
-98
0
LINE
8
BLACK
6
CONTINUOUS
10
135.1
20
-98
11
135.875
21
-98
0
LINE
8
BLACK
6
CONTINUOUS
10
135.875
20
-98
11
135.894
21
-98.0038
0
LINE
8
BLACK
6
CONTINUOUS
10
129.019
20
-97.6038
11
129.035
21
-97.6146
0
LINE
8
BLACK
6
CONTINUOUS
10
129.035
20
-97.6146
11
129.046
21
-97.6309
0
LINE
8
BLACK
6
CONTINUOUS
10
129.046
20
-97.6309
11
129.05
21
-97.65
0
LINE
8
BLACK
6
CONTINUOUS
10
129.05
20
-97.65
11
129.05
21
-97.75
0
LINE
8
BLACK
6
CONTINUOUS
10
129.05
20
-97.75
11
129.046
21
-97.7691
0
LINE
8
BLACK
6
CONTINUOUS
10
129.046
20
-97.7691
11
129.035
21
-97.7854
0
LINE
8
BLACK
6
CONTINUOUS
10
129.035
20
-97.7854
11
129.019
21
-97.7962
0
LINE
8
BLACK
6
CONTINUOUS
10
129.019
20
-97.7962
11
129
21
-97.8
0
LINE
8
BLACK
6
CONTINUOUS
10
129
20
-97.8
11
128.225
21
-97.8
0
LINE
8
BLACK
6
CONTINUOUS
10
128.225
20
-97.8
11
128.206
21
-97.7962
0
LINE
8
BLACK
6
CONTINUOUS
10
128.206
20
-97.7962
11
128.19
21
-97.7854
0
LINE
8
BLACK
6
CONTINUOUS
10
128.19
20
-97.7854
11
128.179
21
-97.7691
0
LINE
8
BLACK
6
CONTINUOUS
10
128.179
20
-97.7691
11
128.175
21
-97.75
0
LINE
8
BLACK
6
CONTINUOUS
10
128.175
20
-97.75
11
128.175
21
-97.65
0
LINE
8
BLACK
6
CONTINUOUS
10
128.175
20
-97.65
11
128.179
21
-97.6309
0
LINE
8
BLACK
6
CONTINUOUS
10
128.179
20
-97.6309
11
128.19
21
-97.6146
0
LINE
8
BLACK
6
CONTINUOUS
10
128.19
20
-97.6146
11
128.206
21
-97.6038
0
LINE
8
BLACK
6
CONTINUOUS
10
128.206
20
-97.6038
11
128.225
21
-97.6
0
LINE
8
BLACK
6
CONTINUOUS
10
128.225
20
-97.6
11
129
21
-97.6
0
LINE
8
BLACK
6
CONTINUOUS
10
129
20
-97.6
11
129.019
21
-97.6038
0
LINE
8
BLACK
6
CONTINUOUS
10
135.894
20
-97.6038
11
135.91
21
-97.6146
0
LINE
8
BLACK
6
CONTINUOUS
10
135.91
20
-97.6146
11
135.921
21
-97.6309
0
LINE
8
BLACK
6
CONTINUOUS
10
135.921
20
-97.6309
11
135.925
21
-97.65
0
LINE
8
BLACK
6
CONTINUOUS
10
135.925
20
-97.65
11
135.925
21
-97.75
0
LINE
8
BLACK
6
CONTINUOUS
10
135.925
20
-97.75
11
135.921
21
-97.7691
0
LINE
8
BLACK
6
CONTINUOUS
10
135.921
20
-97.7691
11
135.91
21
-97.7854
0
LINE
8
BLACK
6
CONTINUOUS
10
135.91
20
-97.7854
11
135.894
21
-97.7962
0
LINE
8
BLACK
6
CONTINUOUS
10
135.894
20
-97.7962
11
135.875
21
-97.8
0
LINE
8
BLACK
6
CONTINUOUS
10
135.875
20
-97.8
11
135.1
21
-97.8
0
LINE
8
BLACK
6
CONTINUOUS
10
135.1
20
-97.8
11
135.081
21
-97.7962
0
LINE
8
BLACK
6
CONTINUOUS
10
135.081
20
-97.7962
11
135.065
21
-97.7854
0
LINE
8
BLACK
6
CONTINUOUS
10
135.065
20
-97.7854
11
135.054
21
-97.7691
0
LINE
8
BLACK
6
CONTINUOUS
10
135.054
20
-97.7691
11
135.05
21
-97.75
0
LINE
8
BLACK
6
CONTINUOUS
10
135.05
20
-97.75
11
135.05
21
-97.65
0
LINE
8
BLACK
6
CONTINUOUS
10
135.05
20
-97.65
11
135.054
21
-97.6309
0
LINE
8
BLACK
6
CONTINUOUS
10
135.054
20
-97.6309
11
135.065
21
-97.6146
0
LINE
8
BLACK
6
CONTINUOUS
10
135.065
20
-97.6146
11
135.081
21
-97.6038
0
LINE
8
BLACK
6
CONTINUOUS
10
135.081
20
-97.6038
11
135.1
21
-97.6
0
LINE
8
BLACK
6
CONTINUOUS
10
135.1
20
-97.6
11
135.875
21
-97.6
0
LINE
8
BLACK
6
CONTINUOUS
10
135.875
20
-97.6
11
135.894
21
-97.6038
0
LINE
8
BLACK
6
CONTINUOUS
10
133.429
20
-96.3077
11
133.525
21
-96.3502
0
LINE
8
BLACK
6
CONTINUOUS
10
133.525
20
-96.3502
11
133.599
21
-96.4246
0
LINE
8
BLACK
6
CONTINUOUS
10
133.599
20
-96.4246
11
133.642
21
-96.5207
0
LINE
8
BLACK
6
CONTINUOUS
10
133.642
20
-96.5207
11
133.65
21
-96.5873
0
LINE
8
BLACK
6
CONTINUOUS
10
133.65
20
-96.5873
11
133.65
21
-97.3127
0
LINE
8
BLACK
6
CONTINUOUS
10
133.65
20
-97.3127
11
133.642
21
-97.3788
0
LINE
8
BLACK
6
CONTINUOUS
10
133.642
20
-97.3788
11
133.6
21
-97.475
0
LINE
8
BLACK
6
CONTINUOUS
10
133.6
20
-97.475
11
133.525
21
-97.5495
0
LINE
8
BLACK
6
CONTINUOUS
10
133.525
20
-97.5495
11
133.429
21
-97.5922
0
LINE
8
BLACK
6
CONTINUOUS
10
133.429
20
-97.5922
11
133.363
21
-97.6
0
LINE
8
BLACK
6
CONTINUOUS
10
133.363
20
-97.6
11
132.637
21
-97.6
0
LINE
8
BLACK
6
CONTINUOUS
10
132.637
20
-97.6
11
132.571
21
-97.5923
0
LINE
8
BLACK
6
CONTINUOUS
10
132.571
20
-97.5923
11
132.475
21
-97.5498
0
LINE
8
BLACK
6
CONTINUOUS
10
132.475
20
-97.5498
11
132.401
21
-97.4754
0
LINE
8
BLACK
6
CONTINUOUS
10
132.401
20
-97.4754
11
132.358
21
-97.3793
0
LINE
8
BLACK
6
CONTINUOUS
10
132.358
20
-97.3793
11
132.35
21
-97.3127
0
LINE
8
BLACK
6
CONTINUOUS
10
132.35
20
-97.3127
11
132.35
21
-96.5873
0
LINE
8
BLACK
6
CONTINUOUS
10
132.35
20
-96.5873
11
132.358
21
-96.5212
0
LINE
8
BLACK
6
CONTINUOUS
10
132.358
20
-96.5212
11
132.4
21
-96.425
0
LINE
8
BLACK
6
CONTINUOUS
10
132.4
20
-96.425
11
132.475
21
-96.3505
0
LINE
8
BLACK
6
CONTINUOUS
10
132.475
20
-96.3505
11
132.571
21
-96.3078
0
LINE
8
BLACK
6
CONTINUOUS
10
132.571
20
-96.3078
11
132.637
21
-96.3
0
LINE
8
BLACK
6
CONTINUOUS
10
132.637
20
-96.3
11
133.363
21
-96.3
0
LINE
8
BLACK
6
CONTINUOUS
10
133.363
20
-96.3
11
133.429
21
-96.3077
0
LINE
8
BLACK
6
CONTINUOUS
10
131.529
20
-96.3077
11
131.625
21
-96.3502
0
LINE
8
BLACK
6
CONTINUOUS
10
131.625
20
-96.3502
11
131.699
21
-96.4246
0
LINE
8
BLACK
6
CONTINUOUS
10
131.699
20
-96.4246
11
131.742
21
-96.5207
0
LINE
8
BLACK
6
CONTINUOUS
10
131.742
20
-96.5207
11
131.75
21
-96.5873
0
LINE
8
BLACK
6
CONTINUOUS
10
131.75
20
-96.5873
11
131.75
21
-97.3127
0
LINE
8
BLACK
6
CONTINUOUS
10
131.75
20
-97.3127
11
131.742
21
-97.3788
0
LINE
8
BLACK
6
CONTINUOUS
10
131.742
20
-97.3788
11
131.7
21
-97.475
0
LINE
8
BLACK
6
CONTINUOUS
10
131.7
20
-97.475
11
131.625
21
-97.5495
0
LINE
8
BLACK
6
CONTINUOUS
10
131.625
20
-97.5495
11
131.529
21
-97.5922
0
LINE
8
BLACK
6
CONTINUOUS
10
131.529
20
-97.5922
11
131.463
21
-97.6
0
LINE
8
BLACK
6
CONTINUOUS
10
131.463
20
-97.6
11
130.737
21
-97.6
0
LINE
8
BLACK
6
CONTINUOUS
10
130.737
20
-97.6
11
130.671
21
-97.5923
0
LINE
8
BLACK
6
CONTINUOUS
10
130.671
20
-97.5923
11
130.575
21
-97.5498
0
LINE
8
BLACK
6
CONTINUOUS
10
130.575
20
-97.5498
11
130.501
21
-97.4754
0
LINE
8
BLACK
6
CONTINUOUS
10
130.501
20
-97.4754
11
130.458
21
-97.3793
0
LINE
8
BLACK
6
CONTINUOUS
10
130.458
20
-97.3793
11
130.45
21
-97.3127
0
LINE
8
BLACK
6
CONTINUOUS
10
130.45
20
-97.3127
11
130.45
21
-96.5873
0
LINE
8
BLACK
6
CONTINUOUS
10
130.45
20
-96.5873
11
130.458
21
-96.5212
0
LINE
8
BLACK
6
CONTINUOUS
10
130.458
20
-96.5212
11
130.5
21
-96.425
0
LINE
8
BLACK
6
CONTINUOUS
10
130.5
20
-96.425
11
130.575
21
-96.3505
0
LINE
8
BLACK
6
CONTINUOUS
10
130.575
20
-96.3505
11
130.671
21
-96.3078
0
LINE
8
BLACK
6
CONTINUOUS
10
130.671
20
-96.3078
11
130.737
21
-96.3
0
LINE
8
BLACK
6
CONTINUOUS
10
130.737
20
-96.3
11
131.463
21
-96.3
0
LINE
8
BLACK
6
CONTINUOUS
10
131.463
20
-96.3
11
131.529
21
-96.3077
0
LINE
8
BLACK
6
CONTINUOUS
10
137.852
20
-97.1234
11
137.867
21
-97.1332
0
LINE
8
BLACK
6
CONTINUOUS
10
137.867
20
-97.1332
11
137.877
21
-97.1478
0
LINE
8
BLACK
6
CONTINUOUS
10
137.877
20
-97.1478
11
137.88
21
-97.165
0
LINE
8
BLACK
6
CONTINUOUS
10
137.88
20
-97.165
11
137.88
21
-97.535
0
LINE
8
BLACK
6
CONTINUOUS
10
137.88
20
-97.535
11
137.877
21
-97.5522
0
LINE
8
BLACK
6
CONTINUOUS
10
137.877
20
-97.5522
11
137.867
21
-97.5668
0
LINE
8
BLACK
6
CONTINUOUS
10
137.867
20
-97.5668
11
137.852
21
-97.5766
0
LINE
8
BLACK
6
CONTINUOUS
10
137.852
20
-97.5766
11
137.835
21
-97.58
0
LINE
8
BLACK
6
CONTINUOUS
10
137.835
20
-97.58
11
137.565
21
-97.58
0
LINE
8
BLACK
6
CONTINUOUS
10
137.565
20
-97.58
11
137.548
21
-97.5766
0
LINE
8
BLACK
6
CONTINUOUS
10
137.548
20
-97.5766
11
137.533
21
-97.5668
0
LINE
8
BLACK
6
CONTINUOUS
10
137.533
20
-97.5668
11
137.523
21
-97.5522
0
LINE
8
BLACK
6
CONTINUOUS
10
137.523
20
-97.5522
11
137.52
21
-97.535
0
LINE
8
BLACK
6
CONTINUOUS
10
137.52
20
-97.535
11
137.52
21
-97.165
0
LINE
8
BLACK
6
CONTINUOUS
10
137.52
20
-97.165
11
137.523
21
-97.1478
0
LINE
8
BLACK
6
CONTINUOUS
10
137.523
20
-97.1478
11
137.533
21
-97.1332
0
LINE
8
BLACK
6
CONTINUOUS
10
137.533
20
-97.1332
11
137.548
21
-97.1234
0
LINE
8
BLACK
6
CONTINUOUS
10
137.548
20
-97.1234
11
137.565
21
-97.12
0
LINE
8
BLACK
6
CONTINUOUS
10
137.565
20
-97.12
11
137.835
21
-97.12
0
LINE
8
BLACK
6
CONTINUOUS
10
137.835
20
-97.12
11
137.852
21
-97.1234
0
LINE
8
BLACK
6
CONTINUOUS
10
136.952
20
-97.1234
11
136.967
21
-97.1332
0
LINE
8
BLACK
6
CONTINUOUS
10
136.967
20
-97.1332
11
136.977
21
-97.1478
0
LINE
8
BLACK
6
CONTINUOUS
10
136.977
20
-97.1478
11
136.98
21
-97.165
0
LINE
8
BLACK
6
CONTINUOUS
10
136.98
20
-97.165
11
136.98
21
-97.535
0
LINE
8
BLACK
6
CONTINUOUS
10
136.98
20
-97.535
11
136.977
21
-97.5522
0
LINE
8
BLACK
6
CONTINUOUS
10
136.977
20
-97.5522
11
136.967
21
-97.5668
0
LINE
8
BLACK
6
CONTINUOUS
10
136.967
20
-97.5668
11
136.952
21
-97.5766
0
LINE
8
BLACK
6
CONTINUOUS
10
136.952
20
-97.5766
11
136.935
21
-97.58
0
LINE
8
BLACK
6
CONTINUOUS
10
136.935
20
-97.58
11
136.665
21
-97.58
0
LINE
8
BLACK
6
CONTINUOUS
10
136.665
20
-97.58
11
136.648
21
-97.5766
0
LINE
8
BLACK
6
CONTINUOUS
10
136.648
20
-97.5766
11
136.633
21
-97.5668
0
LINE
8
BLACK
6
CONTINUOUS
10
136.633
20
-97.5668
11
136.623
21
-97.5522
0
LINE
8
BLACK
6
CONTINUOUS
10
136.623
20
-97.5522
11
136.62
21
-97.535
0
LINE
8
BLACK
6
CONTINUOUS
10
136.62
20
-97.535
11
136.62
21
-97.165
0
LINE
8
BLACK
6
CONTINUOUS
10
136.62
20
-97.165
11
136.623
21
-97.1478
0
LINE
8
BLACK
6
CONTINUOUS
10
136.623
20
-97.1478
11
136.633
21
-97.1332
0
LINE
8
BLACK
6
CONTINUOUS
10
136.633
20
-97.1332
11
136.648
21
-97.1234
0
LINE
8
BLACK
6
CONTINUOUS
10
136.648
20
-97.1234
11
136.665
21
-97.12
0
LINE
8
BLACK
6
CONTINUOUS
10
136.665
20
-97.12
11
136.935
21
-97.12
0
LINE
8
BLACK
6
CONTINUOUS
10
136.935
20
-97.12
11
136.952
21
-97.1234
0
LINE
8
BLACK
6
CONTINUOUS
10
124.45
20
-97.5
11
123.25
21
-97.5
0
LINE
8
BLACK
6
CONTINUOUS
10
123.25
20
-97.5
11
123.25
21
-96.1
0
LINE
8
BLACK
6
CONTINUOUS
10
123.25
20
-96.1
11
124.45
21
-96.1
0
LINE
8
BLACK
6
CONTINUOUS
10
124.45
20
-96.1
11
124.45
21
-97.5
0
LINE
8
BLACK
6
CONTINUOUS
10
122.75
20
-97.5
11
121.55
21
-97.5
0
LINE
8
BLACK
6
CONTINUOUS
10
121.55
20
-97.5
11
121.55
21
-96.1
0
LINE
8
BLACK
6
CONTINUOUS
10
121.55
20
-96.1
11
122.75
21
-96.1
0
LINE
8
BLACK
6
CONTINUOUS
10
122.75
20
-96.1
11
122.75
21
-97.5
0
LINE
8
BLACK
6
CONTINUOUS
10
135.894
20
-97.2038
11
135.91
21
-97.2146
0
LINE
8
BLACK
6
CONTINUOUS
10
135.91
20
-97.2146
11
135.921
21
-97.2309
0
LINE
8
BLACK
6
CONTINUOUS
10
135.921
20
-97.2309
11
135.925
21
-97.25
0
LINE
8
BLACK
6
CONTINUOUS
10
135.925
20
-97.25
11
135.925
21
-97.35
0
LINE
8
BLACK
6
CONTINUOUS
10
135.925
20
-97.35
11
135.921
21
-97.3691
0
LINE
8
BLACK
6
CONTINUOUS
10
135.921
20
-97.3691
11
135.91
21
-97.3854
0
LINE
8
BLACK
6
CONTINUOUS
10
135.91
20
-97.3854
11
135.894
21
-97.3962
0
LINE
8
BLACK
6
CONTINUOUS
10
135.894
20
-97.3962
11
135.875
21
-97.4
0
LINE
8
BLACK
6
CONTINUOUS
10
135.875
20
-97.4
11
135.1
21
-97.4
0
LINE
8
BLACK
6
CONTINUOUS
10
135.1
20
-97.4
11
135.081
21
-97.3962
0
LINE
8
BLACK
6
CONTINUOUS
10
135.081
20
-97.3962
11
135.065
21
-97.3854
0
LINE
8
BLACK
6
CONTINUOUS
10
135.065
20
-97.3854
11
135.054
21
-97.3691
0
LINE
8
BLACK
6
CONTINUOUS
10
135.054
20
-97.3691
11
135.05
21
-97.35
0
LINE
8
BLACK
6
CONTINUOUS
10
135.05
20
-97.35
11
135.05
21
-97.25
0
LINE
8
BLACK
6
CONTINUOUS
10
135.05
20
-97.25
11
135.054
21
-97.2309
0
LINE
8
BLACK
6
CONTINUOUS
10
135.054
20
-97.2309
11
135.065
21
-97.2146
0
LINE
8
BLACK
6
CONTINUOUS
10
135.065
20
-97.2146
11
135.081
21
-97.2038
0
LINE
8
BLACK
6
CONTINUOUS
10
135.081
20
-97.2038
11
135.1
21
-97.2
0
LINE
8
BLACK
6
CONTINUOUS
10
135.1
20
-97.2
11
135.875
21
-97.2
0
LINE
8
BLACK
6
CONTINUOUS
10
135.875
20
-97.2
11
135.894
21
-97.2038
0
LINE
8
BLACK
6
CONTINUOUS
10
129.019
20
-97.2038
11
129.035
21
-97.2146
0
LINE
8
BLACK
6
CONTINUOUS
10
129.035
20
-97.2146
11
129.046
21
-97.2309
0
LINE
8
BLACK
6
CONTINUOUS
10
129.046
20
-97.2309
11
129.05
21
-97.25
0
LINE
8
BLACK
6
CONTINUOUS
10
129.05
20
-97.25
11
129.05
21
-97.35
0
LINE
8
BLACK
6
CONTINUOUS
10
129.05
20
-97.35
11
129.046
21
-97.3691
0
LINE
8
BLACK
6
CONTINUOUS
10
129.046
20
-97.3691
11
129.035
21
-97.3854
0
LINE
8
BLACK
6
CONTINUOUS
10
129.035
20
-97.3854
11
129.019
21
-97.3962
0
LINE
8
BLACK
6
CONTINUOUS
10
129.019
20
-97.3962
11
129
21
-97.4
0
LINE
8
BLACK
6
CONTINUOUS
10
129
20
-97.4
11
128.225
21
-97.4
0
LINE
8
BLACK
6
CONTINUOUS
10
128.225
20
-97.4
11
128.206
21
-97.3962
0
LINE
8
BLACK
6
CONTINUOUS
10
128.206
20
-97.3962
11
128.19
21
-97.3854
0
LINE
8
BLACK
6
CONTINUOUS
10
128.19
20
-97.3854
11
128.179
21
-97.3691
0
LINE
8
BLACK
6
CONTINUOUS
10
128.179
20
-97.3691
11
128.175
21
-97.35
0
LINE
8
BLACK
6
CONTINUOUS
10
128.175
20
-97.35
11
128.175
21
-97.25
0
LINE
8
BLACK
6
CONTINUOUS
10
128.175
20
-97.25
11
128.179
21
-97.2309
0
LINE
8
BLACK
6
CONTINUOUS
10
128.179
20
-97.2309
11
128.19
21
-97.2146
0
LINE
8
BLACK
6
CONTINUOUS
10
128.19
20
-97.2146
11
128.206
21
-97.2038
0
LINE
8
BLACK
6
CONTINUOUS
10
128.206
20
-97.2038
11
128.225
21
-97.2
0
LINE
8
BLACK
6
CONTINUOUS
10
128.225
20
-97.2
11
129
21
-97.2
0
LINE
8
BLACK
6
CONTINUOUS
10
129
20
-97.2
11
129.019
21
-97.2038
0
LINE
8
BLACK
6
CONTINUOUS
10
125.608
20
-96.8227
11
125.619
21
-96.8305
0
LINE
8
BLACK
6
CONTINUOUS
10
125.619
20
-96.8305
11
125.627
21
-96.8422
0
LINE
8
BLACK
6
CONTINUOUS
10
125.627
20
-96.8422
11
125.63
21
-96.856
0
LINE
8
BLACK
6
CONTINUOUS
10
125.63
20
-96.856
11
125.63
21
-97.244
0
LINE
8
BLACK
6
CONTINUOUS
10
125.63
20
-97.244
11
125.627
21
-97.2578
0
LINE
8
BLACK
6
CONTINUOUS
10
125.627
20
-97.2578
11
125.619
21
-97.2695
0
LINE
8
BLACK
6
CONTINUOUS
10
125.619
20
-97.2695
11
125.608
21
-97.2773
0
LINE
8
BLACK
6
CONTINUOUS
10
125.608
20
-97.2773
11
125.594
21
-97.28
0
LINE
8
BLACK
6
CONTINUOUS
10
125.594
20
-97.28
11
125.306
21
-97.28
0
LINE
8
BLACK
6
CONTINUOUS
10
125.306
20
-97.28
11
125.292
21
-97.2773
0
LINE
8
BLACK
6
CONTINUOUS
10
125.292
20
-97.2773
11
125.281
21
-97.2695
0
LINE
8
BLACK
6
CONTINUOUS
10
125.281
20
-97.2695
11
125.273
21
-97.2578
0
LINE
8
BLACK
6
CONTINUOUS
10
125.273
20
-97.2578
11
125.27
21
-97.244
0
LINE
8
BLACK
6
CONTINUOUS
10
125.27
20
-97.244
11
125.27
21
-96.856
0
LINE
8
BLACK
6
CONTINUOUS
10
125.27
20
-96.856
11
125.273
21
-96.8422
0
LINE
8
BLACK
6
CONTINUOUS
10
125.273
20
-96.8422
11
125.281
21
-96.8305
0
LINE
8
BLACK
6
CONTINUOUS
10
125.281
20
-96.8305
11
125.292
21
-96.8227
0
LINE
8
BLACK
6
CONTINUOUS
10
125.292
20
-96.8227
11
125.306
21
-96.82
0
LINE
8
BLACK
6
CONTINUOUS
10
125.306
20
-96.82
11
125.594
21
-96.82
0
LINE
8
BLACK
6
CONTINUOUS
10
125.594
20
-96.82
11
125.608
21
-96.8227
0
LINE
8
BLACK
6
CONTINUOUS
10
126.508
20
-96.8227
11
126.519
21
-96.8305
0
LINE
8
BLACK
6
CONTINUOUS
10
126.519
20
-96.8305
11
126.527
21
-96.8422
0
LINE
8
BLACK
6
CONTINUOUS
10
126.527
20
-96.8422
11
126.53
21
-96.856
0
LINE
8
BLACK
6
CONTINUOUS
10
126.53
20
-96.856
11
126.53
21
-97.244
0
LINE
8
BLACK
6
CONTINUOUS
10
126.53
20
-97.244
11
126.527
21
-97.2578
0
LINE
8
BLACK
6
CONTINUOUS
10
126.527
20
-97.2578
11
126.519
21
-97.2695
0
LINE
8
BLACK
6
CONTINUOUS
10
126.519
20
-97.2695
11
126.508
21
-97.2773
0
LINE
8
BLACK
6
CONTINUOUS
10
126.508
20
-97.2773
11
126.494
21
-97.28
0
LINE
8
BLACK
6
CONTINUOUS
10
126.494
20
-97.28
11
126.206
21
-97.28
0
LINE
8
BLACK
6
CONTINUOUS
10
126.206
20
-97.28
11
126.192
21
-97.2773
0
LINE
8
BLACK
6
CONTINUOUS
10
126.192
20
-97.2773
11
126.181
21
-97.2695
0
LINE
8
BLACK
6
CONTINUOUS
10
126.181
20
-97.2695
11
126.173
21
-97.2578
0
LINE
8
BLACK
6
CONTINUOUS
10
126.173
20
-97.2578
11
126.17
21
-97.244
0
LINE
8
BLACK
6
CONTINUOUS
10
126.17
20
-97.244
11
126.17
21
-96.856
0
LINE
8
BLACK
6
CONTINUOUS
10
126.17
20
-96.856
11
126.173
21
-96.8422
0
LINE
8
BLACK
6
CONTINUOUS
10
126.173
20
-96.8422
11
126.181
21
-96.8305
0
LINE
8
BLACK
6
CONTINUOUS
10
126.181
20
-96.8305
11
126.192
21
-96.8227
0
LINE
8
BLACK
6
CONTINUOUS
10
126.192
20
-96.8227
11
126.206
21
-96.82
0
LINE
8
BLACK
6
CONTINUOUS
10
126.206
20
-96.82
11
126.494
21
-96.82
0
LINE
8
BLACK
6
CONTINUOUS
10
126.494
20
-96.82
11
126.508
21
-96.8227
0
LINE
8
BLACK
6
CONTINUOUS
10
116.486
20
-95.6378
11
116.561
21
-95.6885
0
LINE
8
BLACK
6
CONTINUOUS
10
116.561
20
-95.6885
11
116.612
21
-95.7645
0
LINE
8
BLACK
6
CONTINUOUS
10
116.612
20
-95.7645
11
116.63
21
-95.854
0
LINE
8
BLACK
6
CONTINUOUS
10
116.63
20
-95.854
11
116.63
21
-96.946
0
LINE
8
BLACK
6
CONTINUOUS
10
116.63
20
-96.946
11
116.612
21
-97.0355
0
LINE
8
BLACK
6
CONTINUOUS
10
116.612
20
-97.0355
11
116.561
21
-97.1115
0
LINE
8
BLACK
6
CONTINUOUS
10
116.561
20
-97.1115
11
116.486
21
-97.1622
0
LINE
8
BLACK
6
CONTINUOUS
10
116.486
20
-97.1622
11
116.396
21
-97.18
0
LINE
8
BLACK
6
CONTINUOUS
10
116.396
20
-97.18
11
115.304
21
-97.18
0
LINE
8
BLACK
6
CONTINUOUS
10
115.304
20
-97.18
11
115.214
21
-97.1622
0
LINE
8
BLACK
6
CONTINUOUS
10
115.214
20
-97.1622
11
115.139
21
-97.1115
0
LINE
8
BLACK
6
CONTINUOUS
10
115.139
20
-97.1115
11
115.088
21
-97.0355
0
LINE
8
BLACK
6
CONTINUOUS
10
115.088
20
-97.0355
11
115.07
21
-96.946
0
LINE
8
BLACK
6
CONTINUOUS
10
115.07
20
-96.946
11
115.07
21
-95.854
0
LINE
8
BLACK
6
CONTINUOUS
10
115.07
20
-95.854
11
115.088
21
-95.7645
0
LINE
8
BLACK
6
CONTINUOUS
10
115.088
20
-95.7645
11
115.139
21
-95.6885
0
LINE
8
BLACK
6
CONTINUOUS
10
115.139
20
-95.6885
11
115.214
21
-95.6378
0
LINE
8
BLACK
6
CONTINUOUS
10
115.214
20
-95.6378
11
115.304
21
-95.62
0
LINE
8
BLACK
6
CONTINUOUS
10
115.304
20
-95.62
11
116.396
21
-95.62
0
LINE
8
BLACK
6
CONTINUOUS
10
116.396
20
-95.62
11
116.486
21
-95.6378
0
LINE
8
BLACK
6
CONTINUOUS
10
135.894
20
-96.8038
11
135.91
21
-96.8146
0
LINE
8
BLACK
6
CONTINUOUS
10
135.91
20
-96.8146
11
135.921
21
-96.8309
0
LINE
8
BLACK
6
CONTINUOUS
10
135.921
20
-96.8309
11
135.925
21
-96.85
0
LINE
8
BLACK
6
CONTINUOUS
10
135.925
20
-96.85
11
135.925
21
-96.95
0
LINE
8
BLACK
6
CONTINUOUS
10
135.925
20
-96.95
11
135.921
21
-96.9691
0
LINE
8
BLACK
6
CONTINUOUS
10
135.921
20
-96.9691
11
135.91
21
-96.9854
0
LINE
8
BLACK
6
CONTINUOUS
10
135.91
20
-96.9854
11
135.894
21
-96.9962
0
LINE
8
BLACK
6
CONTINUOUS
10
135.894
20
-96.9962
11
135.875
21
-97
0
LINE
8
BLACK
6
CONTINUOUS
10
135.875
20
-97
11
135.1
21
-97
0
LINE
8
BLACK
6
CONTINUOUS
10
135.1
20
-97
11
135.081
21
-96.9962
0
LINE
8
BLACK
6
CONTINUOUS
10
135.081
20
-96.9962
11
135.065
21
-96.9854
0
LINE
8
BLACK
6
CONTINUOUS
10
135.065
20
-96.9854
11
135.054
21
-96.9691
0
LINE
8
BLACK
6
CONTINUOUS
10
135.054
20
-96.9691
11
135.05
21
-96.95
0
LINE
8
BLACK
6
CONTINUOUS
10
135.05
20
-96.95
11
135.05
21
-96.85
0
LINE
8
BLACK
6
CONTINUOUS
10
135.05
20
-96.85
11
135.054
21
-96.8309
0
LINE
8
BLACK
6
CONTINUOUS
10
135.054
20
-96.8309
11
135.065
21
-96.8146
0
LINE
8
BLACK
6
CONTINUOUS
10
135.065
20
-96.8146
11
135.081
21
-96.8038
0
LINE
8
BLACK
6
CONTINUOUS
10
135.081
20
-96.8038
11
135.1
21
-96.8
0
LINE
8
BLACK
6
CONTINUOUS
10
135.1
20
-96.8
11
135.875
21
-96.8
0
LINE
8
BLACK
6
CONTINUOUS
10
135.875
20
-96.8
11
135.894
21
-96.8038
0
LINE
8
BLACK
6
CONTINUOUS
10
129.019
20
-96.8038
11
129.035
21
-96.8146
0
LINE
8
BLACK
6
CONTINUOUS
10
129.035
20
-96.8146
11
129.046
21
-96.8309
0
LINE
8
BLACK
6
CONTINUOUS
10
129.046
20
-96.8309
11
129.05
21
-96.85
0
LINE
8
BLACK
6
CONTINUOUS
10
129.05
20
-96.85
11
129.05
21
-96.95
0
LINE
8
BLACK
6
CONTINUOUS
10
129.05
20
-96.95
11
129.046
21
-96.9691
0
LINE
8
BLACK
6
CONTINUOUS
10
129.046
20
-96.9691
11
129.035
21
-96.9854
0
LINE
8
BLACK
6
CONTINUOUS
10
129.035
20
-96.9854
11
129.019
21
-96.9962
0
LINE
8
BLACK
6
CONTINUOUS
10
129.019
20
-96.9962
11
129
21
-97
0
LINE
8
BLACK
6
CONTINUOUS
10
129
20
-97
11
128.225
21
-97
0
LINE
8
BLACK
6
CONTINUOUS
10
128.225
20
-97
11
128.206
21
-96.9962
0
LINE
8
BLACK
6
CONTINUOUS
10
128.206
20
-96.9962
11
128.19
21
-96.9854
0
LINE
8
BLACK
6
CONTINUOUS
10
128.19
20
-96.9854
11
128.179
21
-96.9691
0
LINE
8
BLACK
6
CONTINUOUS
10
128.179
20
-96.9691
11
128.175
21
-96.95
0
LINE
8
BLACK
6
CONTINUOUS
10
128.175
20
-96.95
11
128.175
21
-96.85
0
LINE
8
BLACK
6
CONTINUOUS
10
128.175
20
-96.85
11
128.179
21
-96.8309
0
LINE
8
BLACK
6
CONTINUOUS
10
128.179
20
-96.8309
11
128.19
21
-96.8146
0
LINE
8
BLACK
6
CONTINUOUS
10
128.19
20
-96.8146
11
128.206
21
-96.8038
0
LINE
8
BLACK
6
CONTINUOUS
10
128.206
20
-96.8038
11
128.225
21
-96.8
0
LINE
8
BLACK
6
CONTINUOUS
10
128.225
20
-96.8
11
129
21
-96.8
0
LINE
8
BLACK
6
CONTINUOUS
10
129
20
-96.8
11
129.019
21
-96.8038
0
LINE
8
BLACK
6
CONTINUOUS
10
137.708
20
-96.4227
11
137.719
21
-96.4305
0
LINE
8
BLACK
6
CONTINUOUS
10
137.719
20
-96.4305
11
137.727
21
-96.4422
0
LINE
8
BLACK
6
CONTINUOUS
10
137.727
20
-96.4422
11
137.73
21
-96.456
0
LINE
8
BLACK
6
CONTINUOUS
10
137.73
20
-96.456
11
137.73
21
-96.844
0
LINE
8
BLACK
6
CONTINUOUS
10
137.73
20
-96.844
11
137.727
21
-96.8578
0
LINE
8
BLACK
6
CONTINUOUS
10
137.727
20
-96.8578
11
137.719
21
-96.8695
0
LINE
8
BLACK
6
CONTINUOUS
10
137.719
20
-96.8695
11
137.708
21
-96.8773
0
LINE
8
BLACK
6
CONTINUOUS
10
137.708
20
-96.8773
11
137.694
21
-96.88
0
LINE
8
BLACK
6
CONTINUOUS
10
137.694
20
-96.88
11
137.406
21
-96.88
0
LINE
8
BLACK
6
CONTINUOUS
10
137.406
20
-96.88
11
137.392
21
-96.8773
0
LINE
8
BLACK
6
CONTINUOUS
10
137.392
20
-96.8773
11
137.381
21
-96.8695
0
LINE
8
BLACK
6
CONTINUOUS
10
137.381
20
-96.8695
11
137.373
21
-96.8578
0
LINE
8
BLACK
6
CONTINUOUS
10
137.373
20
-96.8578
11
137.37
21
-96.844
0
LINE
8
BLACK
6
CONTINUOUS
10
137.37
20
-96.844
11
137.37
21
-96.456
0
LINE
8
BLACK
6
CONTINUOUS
10
137.37
20
-96.456
11
137.373
21
-96.4422
0
LINE
8
BLACK
6
CONTINUOUS
10
137.373
20
-96.4422
11
137.381
21
-96.4305
0
LINE
8
BLACK
6
CONTINUOUS
10
137.381
20
-96.4305
11
137.392
21
-96.4227
0
LINE
8
BLACK
6
CONTINUOUS
10
137.392
20
-96.4227
11
137.406
21
-96.42
0
LINE
8
BLACK
6
CONTINUOUS
10
137.406
20
-96.42
11
137.694
21
-96.42
0
LINE
8
BLACK
6
CONTINUOUS
10
137.694
20
-96.42
11
137.708
21
-96.4227
0
LINE
8
BLACK
6
CONTINUOUS
10
136.808
20
-96.4227
11
136.819
21
-96.4305
0
LINE
8
BLACK
6
CONTINUOUS
10
136.819
20
-96.4305
11
136.827
21
-96.4422
0
LINE
8
BLACK
6
CONTINUOUS
10
136.827
20
-96.4422
11
136.83
21
-96.456
0
LINE
8
BLACK
6
CONTINUOUS
10
136.83
20
-96.456
11
136.83
21
-96.844
0
LINE
8
BLACK
6
CONTINUOUS
10
136.83
20
-96.844
11
136.827
21
-96.8578
0
LINE
8
BLACK
6
CONTINUOUS
10
136.827
20
-96.8578
11
136.819
21
-96.8695
0
LINE
8
BLACK
6
CONTINUOUS
10
136.819
20
-96.8695
11
136.808
21
-96.8773
0
LINE
8
BLACK
6
CONTINUOUS
10
136.808
20
-96.8773
11
136.794
21
-96.88
0
LINE
8
BLACK
6
CONTINUOUS
10
136.794
20
-96.88
11
136.506
21
-96.88
0
LINE
8
BLACK
6
CONTINUOUS
10
136.506
20
-96.88
11
136.492
21
-96.8773
0
LINE
8
BLACK
6
CONTINUOUS
10
136.492
20
-96.8773
11
136.481
21
-96.8695
0
LINE
8
BLACK
6
CONTINUOUS
10
136.481
20
-96.8695
11
136.473
21
-96.8578
0
LINE
8
BLACK
6
CONTINUOUS
10
136.473
20
-96.8578
11
136.47
21
-96.844
0
LINE
8
BLACK
6
CONTINUOUS
10
136.47
20
-96.844
11
136.47
21
-96.456
0
LINE
8
BLACK
6
CONTINUOUS
10
136.47
20
-96.456
11
136.473
21
-96.4422
0
LINE
8
BLACK
6
CONTINUOUS
10
136.473
20
-96.4422
11
136.481
21
-96.4305
0
LINE
8
BLACK
6
CONTINUOUS
10
136.481
20
-96.4305
11
136.492
21
-96.4227
0
LINE
8
BLACK
6
CONTINUOUS
10
136.492
20
-96.4227
11
136.506
21
-96.42
0
LINE
8
BLACK
6
CONTINUOUS
10
136.506
20
-96.42
11
136.794
21
-96.42
0
LINE
8
BLACK
6
CONTINUOUS
10
136.794
20
-96.42
11
136.808
21
-96.4227
0
LINE
8
BLACK
6
CONTINUOUS
10
135.894
20
-96.4038
11
135.91
21
-96.4146
0
LINE
8
BLACK
6
CONTINUOUS
10
135.91
20
-96.4146
11
135.921
21
-96.4309
0
LINE
8
BLACK
6
CONTINUOUS
10
135.921
20
-96.4309
11
135.925
21
-96.45
0
LINE
8
BLACK
6
CONTINUOUS
10
135.925
20
-96.45
11
135.925
21
-96.55
0
LINE
8
BLACK
6
CONTINUOUS
10
135.925
20
-96.55
11
135.921
21
-96.5691
0
LINE
8
BLACK
6
CONTINUOUS
10
135.921
20
-96.5691
11
135.91
21
-96.5854
0
LINE
8
BLACK
6
CONTINUOUS
10
135.91
20
-96.5854
11
135.894
21
-96.5962
0
LINE
8
BLACK
6
CONTINUOUS
10
135.894
20
-96.5962
11
135.875
21
-96.6
0
LINE
8
BLACK
6
CONTINUOUS
10
135.875
20
-96.6
11
135.1
21
-96.6
0
LINE
8
BLACK
6
CONTINUOUS
10
135.1
20
-96.6
11
135.081
21
-96.5962
0
LINE
8
BLACK
6
CONTINUOUS
10
135.081
20
-96.5962
11
135.065
21
-96.5854
0
LINE
8
BLACK
6
CONTINUOUS
10
135.065
20
-96.5854
11
135.054
21
-96.5691
0
LINE
8
BLACK
6
CONTINUOUS
10
135.054
20
-96.5691
11
135.05
21
-96.55
0
LINE
8
BLACK
6
CONTINUOUS
10
135.05
20
-96.55
11
135.05
21
-96.45
0
LINE
8
BLACK
6
CONTINUOUS
10
135.05
20
-96.45
11
135.054
21
-96.4309
0
LINE
8
BLACK
6
CONTINUOUS
10
135.054
20
-96.4309
11
135.065
21
-96.4146
0
LINE
8
BLACK
6
CONTINUOUS
10
135.065
20
-96.4146
11
135.081
21
-96.4038
0
LINE
8
BLACK
6
CONTINUOUS
10
135.081
20
-96.4038
11
135.1
21
-96.4
0
LINE
8
BLACK
6
CONTINUOUS
10
135.1
20
-96.4
11
135.875
21
-96.4
0
LINE
8
BLACK
6
CONTINUOUS
10
135.875
20
-96.4
11
135.894
21
-96.4038
0
LINE
8
BLACK
6
CONTINUOUS
10
129.019
20
-96.4038
11
129.035
21
-96.4146
0
LINE
8
BLACK
6
CONTINUOUS
10
129.035
20
-96.4146
11
129.046
21
-96.4309
0
LINE
8
BLACK
6
CONTINUOUS
10
129.046
20
-96.4309
11
129.05
21
-96.45
0
LINE
8
BLACK
6
CONTINUOUS
10
129.05
20
-96.45
11
129.05
21
-96.55
0
LINE
8
BLACK
6
CONTINUOUS
10
129.05
20
-96.55
11
129.046
21
-96.5691
0
LINE
8
BLACK
6
CONTINUOUS
10
129.046
20
-96.5691
11
129.035
21
-96.5854
0
LINE
8
BLACK
6
CONTINUOUS
10
129.035
20
-96.5854
11
129.019
21
-96.5962
0
LINE
8
BLACK
6
CONTINUOUS
10
129.019
20
-96.5962
11
129
21
-96.6
0
LINE
8
BLACK
6
CONTINUOUS
10
129
20
-96.6
11
128.225
21
-96.6
0
LINE
8
BLACK
6
CONTINUOUS
10
128.225
20
-96.6
11
128.206
21
-96.5962
0
LINE
8
BLACK
6
CONTINUOUS
10
128.206
20
-96.5962
11
128.19
21
-96.5854
0
LINE
8
BLACK
6
CONTINUOUS
10
128.19
20
-96.5854
11
128.179
21
-96.5691
0
LINE
8
BLACK
6
CONTINUOUS
10
128.179
20
-96.5691
11
128.175
21
-96.55
0
LINE
8
BLACK
6
CONTINUOUS
10
128.175
20
-96.55
11
128.175
21
-96.45
0
LINE
8
BLACK
6
CONTINUOUS
10
128.175
20
-96.45
11
128.179
21
-96.4309
0
LINE
8
BLACK
6
CONTINUOUS
10
128.179
20
-96.4309
11
128.19
21
-96.4146
0
LINE
8
BLACK
6
CONTINUOUS
10
128.19
20
-96.4146
11
128.206
21
-96.4038
0
LINE
8
BLACK
6
CONTINUOUS
10
128.206
20
-96.4038
11
128.225
21
-96.4
0
LINE
8
BLACK
6
CONTINUOUS
10
128.225
20
-96.4
11
129
21
-96.4
0
LINE
8
BLACK
6
CONTINUOUS
10
129
20
-96.4
11
129.019
21
-96.4038
0
LINE
8
BLACK
6
CONTINUOUS
10
135.894
20
-96.0038
11
135.91
21
-96.0146
0
LINE
8
BLACK
6
CONTINUOUS
10
135.91
20
-96.0146
11
135.921
21
-96.0309
0
LINE
8
BLACK
6
CONTINUOUS
10
135.921
20
-96.0309
11
135.925
21
-96.05
0
LINE
8
BLACK
6
CONTINUOUS
10
135.925
20
-96.05
11
135.925
21
-96.15
0
LINE
8
BLACK
6
CONTINUOUS
10
135.925
20
-96.15
11
135.921
21
-96.1691
0
LINE
8
BLACK
6
CONTINUOUS
10
135.921
20
-96.1691
11
135.91
21
-96.1854
0
LINE
8
BLACK
6
CONTINUOUS
10
135.91
20
-96.1854
11
135.894
21
-96.1962
0
LINE
8
BLACK
6
CONTINUOUS
10
135.894
20
-96.1962
11
135.875
21
-96.2
0
LINE
8
BLACK
6
CONTINUOUS
10
135.875
20
-96.2
11
135.1
21
-96.2
0
LINE
8
BLACK
6
CONTINUOUS
10
135.1
20
-96.2
11
135.081
21
-96.1962
0
LINE
8
BLACK
6
CONTINUOUS
10
135.081
20
-96.1962
11
135.065
21
-96.1854
0
LINE
8
BLACK
6
CONTINUOUS
10
135.065
20
-96.1854
11
135.054
21
-96.1691
0
LINE
8
BLACK
6
CONTINUOUS
10
135.054
20
-96.1691
11
135.05
21
-96.15
0
LINE
8
BLACK
6
CONTINUOUS
10
135.05
20
-96.15
11
135.05
21
-96.05
0
LINE
8
BLACK
6
CONTINUOUS
10
135.05
20
-96.05
11
135.054
21
-96.0309
0
LINE
8
BLACK
6
CONTINUOUS
10
135.054
20
-96.0309
11
135.065
21
-96.0146
0
LINE
8
BLACK
6
CONTINUOUS
10
135.065
20
-96.0146
11
135.081
21
-96.0038
0
LINE
8
BLACK
6
CONTINUOUS
10
135.081
20
-96.0038
11
135.1
21
-96
0
LINE
8
BLACK
6
CONTINUOUS
10
135.1
20
-96
11
135.875
21
-96
0
LINE
8
BLACK
6
CONTINUOUS
10
135.875
20
-96
11
135.894
21
-96.0038
0
LINE
8
BLACK
6
CONTINUOUS
10
129.019
20
-96.0038
11
129.035
21
-96.0146
0
LINE
8
BLACK
6
CONTINUOUS
10
129.035
20
-96.0146
11
129.046
21
-96.0309
0
LINE
8
BLACK
6
CONTINUOUS
10
129.046
20
-96.0309
11
129.05
21
-96.05
0
LINE
8
BLACK
6
CONTINUOUS
10
129.05
20
-96.05
11
129.05
21
-96.15
0
LINE
8
BLACK
6
CONTINUOUS
10
129.05
20
-96.15
11
129.046
21
-96.1691
0
LINE
8
BLACK
6
CONTINUOUS
10
129.046
20
-96.1691
11
129.035
21
-96.1854
0
LINE
8
BLACK
6
CONTINUOUS
10
129.035
20
-96.1854
11
129.019
21
-96.1962
0
LINE
8
BLACK
6
CONTINUOUS
10
129.019
20
-96.1962
11
129
21
-96.2
0
LINE
8
BLACK
6
CONTINUOUS
10
129
20
-96.2
11
128.225
21
-96.2
0
LINE
8
BLACK
6
CONTINUOUS
10
128.225
20
-96.2
11
128.206
21
-96.1962
0
LINE
8
BLACK
6
CONTINUOUS
10
128.206
20
-96.1962
11
128.19
21
-96.1854
0
LINE
8
BLACK
6
CONTINUOUS
10
128.19
20
-96.1854
11
128.179
21
-96.1691
0
LINE
8
BLACK
6
CONTINUOUS
10
128.179
20
-96.1691
11
128.175
21
-96.15
0
LINE
8
BLACK
6
CONTINUOUS
10
128.175
20
-96.15
11
128.175
21
-96.05
0
LINE
8
BLACK
6
CONTINUOUS
10
128.175
20
-96.05
11
128.179
21
-96.0309
0
LINE
8
BLACK
6
CONTINUOUS
10
128.179
20
-96.0309
11
128.19
21
-96.0146
0
LINE
8
BLACK
6
CONTINUOUS
10
128.19
20
-96.0146
11
128.206
21
-96.0038
0
LINE
8
BLACK
6
CONTINUOUS
10
128.206
20
-96.0038
11
128.225
21
-96
0
LINE
8
BLACK
6
CONTINUOUS
10
128.225
20
-96
11
129
21
-96
0
LINE
8
BLACK
6
CONTINUOUS
10
129
20
-96
11
129.019
21
-96.0038
0
LINE
8
BLACK
6
CONTINUOUS
10
135.894
20
-95.6038
11
135.91
21
-95.6146
0
LINE
8
BLACK
6
CONTINUOUS
10
135.91
20
-95.6146
11
135.921
21
-95.6309
0
LINE
8
BLACK
6
CONTINUOUS
10
135.921
20
-95.6309
11
135.925
21
-95.65
0
LINE
8
BLACK
6
CONTINUOUS
10
135.925
20
-95.65
11
135.925
21
-95.75
0
LINE
8
BLACK
6
CONTINUOUS
10
135.925
20
-95.75
11
135.921
21
-95.7691
0
LINE
8
BLACK
6
CONTINUOUS
10
135.921
20
-95.7691
11
135.91
21
-95.7854
0
LINE
8
BLACK
6
CONTINUOUS
10
135.91
20
-95.7854
11
135.894
21
-95.7962
0
LINE
8
BLACK
6
CONTINUOUS
10
135.894
20
-95.7962
11
135.875
21
-95.8
0
LINE
8
BLACK
6
CONTINUOUS
10
135.875
20
-95.8
11
135.1
21
-95.8
0
LINE
8
BLACK
6
CONTINUOUS
10
135.1
20
-95.8
11
135.081
21
-95.7962
0
LINE
8
BLACK
6
CONTINUOUS
10
135.081
20
-95.7962
11
135.065
21
-95.7854
0
LINE
8
BLACK
6
CONTINUOUS
10
135.065
20
-95.7854
11
135.054
21
-95.7691
0
LINE
8
BLACK
6
CONTINUOUS
10
135.054
20
-95.7691
11
135.05
21
-95.75
0
LINE
8
BLACK
6
CONTINUOUS
10
135.05
20
-95.75
11
135.05
21
-95.65
0
LINE
8
BLACK
6
CONTINUOUS
10
135.05
20
-95.65
11
135.054
21
-95.6309
0
LINE
8
BLACK
6
CONTINUOUS
10
135.054
20
-95.6309
11
135.065
21
-95.6146
0
LINE
8
BLACK
6
CONTINUOUS
10
135.065
20
-95.6146
11
135.081
21
-95.6038
0
LINE
8
BLACK
6
CONTINUOUS
10
135.081
20
-95.6038
11
135.1
21
-95.6
0
LINE
8
BLACK
6
CONTINUOUS
10
135.1
20
-95.6
11
135.875
21
-95.6
0
LINE
8
BLACK
6
CONTINUOUS
10
135.875
20
-95.6
11
135.894
21
-95.6038
0
LINE
8
BLACK
6
CONTINUOUS
10
129.019
20
-95.6038
11
129.035
21
-95.6146
0
LINE
8
BLACK
6
CONTINUOUS
10
129.035
20
-95.6146
11
129.046
21
-95.6309
0
LINE
8
BLACK
6
CONTINUOUS
10
129.046
20
-95.6309
11
129.05
21
-95.65
0
LINE
8
BLACK
6
CONTINUOUS
10
129.05
20
-95.65
11
129.05
21
-95.75
0
LINE
8
BLACK
6
CONTINUOUS
10
129.05
20
-95.75
11
129.046
21
-95.7691
0
LINE
8
BLACK
6
CONTINUOUS
10
129.046
20
-95.7691
11
129.035
21
-95.7854
0
LINE
8
BLACK
6
CONTINUOUS
10
129.035
20
-95.7854
11
129.019
21
-95.7962
0
LINE
8
BLACK
6
CONTINUOUS
10
129.019
20
-95.7962
11
129
21
-95.8
0
LINE
8
BLACK
6
CONTINUOUS
10
129
20
-95.8
11
128.225
21
-95.8
0
LINE
8
BLACK
6
CONTINUOUS
10
128.225
20
-95.8
11
128.206
21
-95.7962
0
LINE
8
BLACK
6
CONTINUOUS
10
128.206
20
-95.7962
11
128.19
21
-95.7854
0
LINE
8
BLACK
6
CONTINUOUS
10
128.19
20
-95.7854
11
128.179
21
-95.7691
0
LINE
8
BLACK
6
CONTINUOUS
10
128.179
20
-95.7691
11
128.175
21
-95.75
0
LINE
8
BLACK
6
CONTINUOUS
10
128.175
20
-95.75
11
128.175
21
-95.65
0
LINE
8
BLACK
6
CONTINUOUS
10
128.175
20
-95.65
11
128.179
21
-95.6309
0
LINE
8
BLACK
6
CONTINUOUS
10
128.179
20
-95.6309
11
128.19
21
-95.6146
0
LINE
8
BLACK
6
CONTINUOUS
10
128.19
20
-95.6146
11
128.206
21
-95.6038
0
LINE
8
BLACK
6
CONTINUOUS
10
128.206
20
-95.6038
11
128.225
21
-95.6
0
LINE
8
BLACK
6
CONTINUOUS
10
128.225
20
-95.6
11
129
21
-95.6
0
LINE
8
BLACK
6
CONTINUOUS
10
129
20
-95.6
11
129.019
21
-95.6038
0
LINE
8
BLACK
6
CONTINUOUS
10
129.019
20
-95.2038
11
129.035
21
-95.2146
0
LINE
8
BLACK
6
CONTINUOUS
10
129.035
20
-95.2146
11
129.046
21
-95.2309
0
LINE
8
BLACK
6
CONTINUOUS
10
129.046
20
-95.2309
11
129.05
21
-95.25
0
LINE
8
BLACK
6
CONTINUOUS
10
129.05
20
-95.25
11
129.05
21
-95.35
0
LINE
8
BLACK
6
CONTINUOUS
10
129.05
20
-95.35
11
129.046
21
-95.3691
0
LINE
8
BLACK
6
CONTINUOUS
10
129.046
20
-95.3691
11
129.035
21
-95.3854
0
LINE
8
BLACK
6
CONTINUOUS
10
129.035
20
-95.3854
11
129.019
21
-95.3962
0
LINE
8
BLACK
6
CONTINUOUS
10
129.019
20
-95.3962
11
129
21
-95.4
0
LINE
8
BLACK
6
CONTINUOUS
10
129
20
-95.4
11
128.225
21
-95.4
0
LINE
8
BLACK
6
CONTINUOUS
10
128.225
20
-95.4
11
128.206
21
-95.3962
0
LINE
8
BLACK
6
CONTINUOUS
10
128.206
20
-95.3962
11
128.19
21
-95.3854
0
LINE
8
BLACK
6
CONTINUOUS
10
128.19
20
-95.3854
11
128.179
21
-95.3691
0
LINE
8
BLACK
6
CONTINUOUS
10
128.179
20
-95.3691
11
128.175
21
-95.35
0
LINE
8
BLACK
6
CONTINUOUS
10
128.175
20
-95.35
11
128.175
21
-95.25
0
LINE
8
BLACK
6
CONTINUOUS
10
128.175
20
-95.25
11
128.179
21
-95.2309
0
LINE
8
BLACK
6
CONTINUOUS
10
128.179
20
-95.2309
11
128.19
21
-95.2146
0
LINE
8
BLACK
6
CONTINUOUS
10
128.19
20
-95.2146
11
128.206
21
-95.2038
0
LINE
8
BLACK
6
CONTINUOUS
10
128.206
20
-95.2038
11
128.225
21
-95.2
0
LINE
8
BLACK
6
CONTINUOUS
10
128.225
20
-95.2
11
129
21
-95.2
0
LINE
8
BLACK
6
CONTINUOUS
10
129
20
-95.2
11
129.019
21
-95.2038
0
LINE
8
BLACK
6
CONTINUOUS
10
135.894
20
-95.2038
11
135.91
21
-95.2146
0
LINE
8
BLACK
6
CONTINUOUS
10
135.91
20
-95.2146
11
135.921
21
-95.2309
0
LINE
8
BLACK
6
CONTINUOUS
10
135.921
20
-95.2309
11
135.925
21
-95.25
0
LINE
8
BLACK
6
CONTINUOUS
10
135.925
20
-95.25
11
135.925
21
-95.35
0
LINE
8
BLACK
6
CONTINUOUS
10
135.925
20
-95.35
11
135.921
21
-95.3691
0
LINE
8
BLACK
6
CONTINUOUS
10
135.921
20
-95.3691
11
135.91
21
-95.3854
0
LINE
8
BLACK
6
CONTINUOUS
10
135.91
20
-95.3854
11
135.894
21
-95.3962
0
LINE
8
BLACK
6
CONTINUOUS
10
135.894
20
-95.3962
11
135.875
21
-95.4
0
LINE
8
BLACK
6
CONTINUOUS
10
135.875
20
-95.4
11
135.1
21
-95.4
0
LINE
8
BLACK
6
CONTINUOUS
10
135.1
20
-95.4
11
135.081
21
-95.3962
0
LINE
8
BLACK
6
CONTINUOUS
10
135.081
20
-95.3962
11
135.065
21
-95.3854
0
LINE
8
BLACK
6
CONTINUOUS
10
135.065
20
-95.3854
11
135.054
21
-95.3691
0
LINE
8
BLACK
6
CONTINUOUS
10
135.054
20
-95.3691
11
135.05
21
-95.35
0
LINE
8
BLACK
6
CONTINUOUS
10
135.05
20
-95.35
11
135.05
21
-95.25
0
LINE
8
BLACK
6
CONTINUOUS
10
135.05
20
-95.25
11
135.054
21
-95.2309
0
LINE
8
BLACK
6
CONTINUOUS
10
135.054
20
-95.2309
11
135.065
21
-95.2146
0
LINE
8
BLACK
6
CONTINUOUS
10
135.065
20
-95.2146
11
135.081
21
-95.2038
0
LINE
8
BLACK
6
CONTINUOUS
10
135.081
20
-95.2038
11
135.1
21
-95.2
0
LINE
8
BLACK
6
CONTINUOUS
10
135.1
20
-95.2
11
135.875
21
-95.2
0
LINE
8
BLACK
6
CONTINUOUS
10
135.875
20
-95.2
11
135.894
21
-95.2038
0
LINE
8
BLACK
6
CONTINUOUS
10
136.758
20
-94.9727
11
136.769
21
-94.9805
0
LINE
8
BLACK
6
CONTINUOUS
10
136.769
20
-94.9805
11
136.777
21
-94.9922
0
LINE
8
BLACK
6
CONTINUOUS
10
136.777
20
-94.9922
11
136.78
21
-95.006
0
LINE
8
BLACK
6
CONTINUOUS
10
136.78
20
-95.006
11
136.78
21
-95.294
0
LINE
8
BLACK
6
CONTINUOUS
10
136.78
20
-95.294
11
136.777
21
-95.3078
0
LINE
8
BLACK
6
CONTINUOUS
10
136.777
20
-95.3078
11
136.769
21
-95.3195
0
LINE
8
BLACK
6
CONTINUOUS
10
136.769
20
-95.3195
11
136.758
21
-95.3273
0
LINE
8
BLACK
6
CONTINUOUS
10
136.758
20
-95.3273
11
136.744
21
-95.33
0
LINE
8
BLACK
6
CONTINUOUS
10
136.744
20
-95.33
11
136.356
21
-95.33
0
LINE
8
BLACK
6
CONTINUOUS
10
136.356
20
-95.33
11
136.342
21
-95.3273
0
LINE
8
BLACK
6
CONTINUOUS
10
136.342
20
-95.3273
11
136.331
21
-95.3195
0
LINE
8
BLACK
6
CONTINUOUS
10
136.331
20
-95.3195
11
136.323
21
-95.3078
0
LINE
8
BLACK
6
CONTINUOUS
10
136.323
20
-95.3078
11
136.32
21
-95.294
0
LINE
8
BLACK
6
CONTINUOUS
10
136.32
20
-95.294
11
136.32
21
-95.006
0
LINE
8
BLACK
6
CONTINUOUS
10
136.32
20
-95.006
11
136.323
21
-94.9922
0
LINE
8
BLACK
6
CONTINUOUS
10
136.323
20
-94.9922
11
136.331
21
-94.9805
0
LINE
8
BLACK
6
CONTINUOUS
10
136.331
20
-94.9805
11
136.342
21
-94.9727
0
LINE
8
BLACK
6
CONTINUOUS
10
136.342
20
-94.9727
11
136.356
21
-94.97
0
LINE
8
BLACK
6
CONTINUOUS
10
136.356
20
-94.97
11
136.744
21
-94.97
0
LINE
8
BLACK
6
CONTINUOUS
10
136.744
20
-94.97
11
136.758
21
-94.9727
0
LINE
8
BLACK
6
CONTINUOUS
10
124.45
20
-95.3
11
123.25
21
-95.3
0
LINE
8
BLACK
6
CONTINUOUS
10
123.25
20
-95.3
11
123.25
21
-93.9
0
LINE
8
BLACK
6
CONTINUOUS
10
123.25
20
-93.9
11
124.45
21
-93.9
0
LINE
8
BLACK
6
CONTINUOUS
10
124.45
20
-93.9
11
124.45
21
-95.3
0
LINE
8
BLACK
6
CONTINUOUS
10
122.75
20
-95.3
11
121.55
21
-95.3
0
LINE
8
BLACK
6
CONTINUOUS
10
121.55
20
-95.3
11
121.55
21
-93.9
0
LINE
8
BLACK
6
CONTINUOUS
10
121.55
20
-93.9
11
122.75
21
-93.9
0
LINE
8
BLACK
6
CONTINUOUS
10
122.75
20
-93.9
11
122.75
21
-95.3
0
LINE
8
BLACK
6
CONTINUOUS
10
115.858
20
-94.8727
11
115.869
21
-94.8805
0
LINE
8
BLACK
6
CONTINUOUS
10
115.869
20
-94.8805
11
115.877
21
-94.8922
0
LINE
8
BLACK
6
CONTINUOUS
10
115.877
20
-94.8922
11
115.88
21
-94.906
0
LINE
8
BLACK
6
CONTINUOUS
10
115.88
20
-94.906
11
115.88
21
-95.194
0
LINE
8
BLACK
6
CONTINUOUS
10
115.88
20
-95.194
11
115.877
21
-95.2078
0
LINE
8
BLACK
6
CONTINUOUS
10
115.877
20
-95.2078
11
115.869
21
-95.2195
0
LINE
8
BLACK
6
CONTINUOUS
10
115.869
20
-95.2195
11
115.858
21
-95.2273
0
LINE
8
BLACK
6
CONTINUOUS
10
115.858
20
-95.2273
11
115.844
21
-95.23
0
LINE
8
BLACK
6
CONTINUOUS
10
115.844
20
-95.23
11
115.456
21
-95.23
0
LINE
8
BLACK
6
CONTINUOUS
10
115.456
20
-95.23
11
115.442
21
-95.2273
0
LINE
8
BLACK
6
CONTINUOUS
10
115.442
20
-95.2273
11
115.431
21
-95.2195
0
LINE
8
BLACK
6
CONTINUOUS
10
115.431
20
-95.2195
11
115.423
21
-95.2078
0
LINE
8
BLACK
6
CONTINUOUS
10
115.423
20
-95.2078
11
115.42
21
-95.194
0
LINE
8
BLACK
6
CONTINUOUS
10
115.42
20
-95.194
11
115.42
21
-94.906
0
LINE
8
BLACK
6
CONTINUOUS
10
115.42
20
-94.906
11
115.423
21
-94.8922
0
LINE
8
BLACK
6
CONTINUOUS
10
115.423
20
-94.8922
11
115.431
21
-94.8805
0
LINE
8
BLACK
6
CONTINUOUS
10
115.431
20
-94.8805
11
115.442
21
-94.8727
0
LINE
8
BLACK
6
CONTINUOUS
10
115.442
20
-94.8727
11
115.456
21
-94.87
0
LINE
8
BLACK
6
CONTINUOUS
10
115.456
20
-94.87
11
115.844
21
-94.87
0
LINE
8
BLACK
6
CONTINUOUS
10
115.844
20
-94.87
11
115.858
21
-94.8727
0
LINE
8
BLACK
6
CONTINUOUS
10
116.552
20
-94.8734
11
116.567
21
-94.8832
0
LINE
8
BLACK
6
CONTINUOUS
10
116.567
20
-94.8832
11
116.577
21
-94.8978
0
LINE
8
BLACK
6
CONTINUOUS
10
116.577
20
-94.8978
11
116.58
21
-94.915
0
LINE
8
BLACK
6
CONTINUOUS
10
116.58
20
-94.915
11
116.58
21
-95.185
0
LINE
8
BLACK
6
CONTINUOUS
10
116.58
20
-95.185
11
116.577
21
-95.2022
0
LINE
8
BLACK
6
CONTINUOUS
10
116.577
20
-95.2022
11
116.567
21
-95.2168
0
LINE
8
BLACK
6
CONTINUOUS
10
116.567
20
-95.2168
11
116.552
21
-95.2266
0
LINE
8
BLACK
6
CONTINUOUS
10
116.552
20
-95.2266
11
116.535
21
-95.23
0
LINE
8
BLACK
6
CONTINUOUS
10
116.535
20
-95.23
11
116.165
21
-95.23
0
LINE
8
BLACK
6
CONTINUOUS
10
116.165
20
-95.23
11
116.148
21
-95.2266
0
LINE
8
BLACK
6
CONTINUOUS
10
116.148
20
-95.2266
11
116.133
21
-95.2168
0
LINE
8
BLACK
6
CONTINUOUS
10
116.133
20
-95.2168
11
116.123
21
-95.2022
0
LINE
8
BLACK
6
CONTINUOUS
10
116.123
20
-95.2022
11
116.12
21
-95.185
0
LINE
8
BLACK
6
CONTINUOUS
10
116.12
20
-95.185
11
116.12
21
-94.915
0
LINE
8
BLACK
6
CONTINUOUS
10
116.12
20
-94.915
11
116.123
21
-94.8978
0
LINE
8
BLACK
6
CONTINUOUS
10
116.123
20
-94.8978
11
116.133
21
-94.8832
0
LINE
8
BLACK
6
CONTINUOUS
10
116.133
20
-94.8832
11
116.148
21
-94.8734
0
LINE
8
BLACK
6
CONTINUOUS
10
116.148
20
-94.8734
11
116.165
21
-94.87
0
LINE
8
BLACK
6
CONTINUOUS
10
116.165
20
-94.87
11
116.535
21
-94.87
0
LINE
8
BLACK
6
CONTINUOUS
10
116.535
20
-94.87
11
116.552
21
-94.8734
0
LINE
8
BLACK
6
CONTINUOUS
10
115.008
20
-94.8727
11
115.019
21
-94.8805
0
LINE
8
BLACK
6
CONTINUOUS
10
115.019
20
-94.8805
11
115.027
21
-94.8922
0
LINE
8
BLACK
6
CONTINUOUS
10
115.027
20
-94.8922
11
115.03
21
-94.906
0
LINE
8
BLACK
6
CONTINUOUS
10
115.03
20
-94.906
11
115.03
21
-95.194
0
LINE
8
BLACK
6
CONTINUOUS
10
115.03
20
-95.194
11
115.027
21
-95.2078
0
LINE
8
BLACK
6
CONTINUOUS
10
115.027
20
-95.2078
11
115.019
21
-95.2195
0
LINE
8
BLACK
6
CONTINUOUS
10
115.019
20
-95.2195
11
115.008
21
-95.2273
0
LINE
8
BLACK
6
CONTINUOUS
10
115.008
20
-95.2273
11
114.994
21
-95.23
0
LINE
8
BLACK
6
CONTINUOUS
10
114.994
20
-95.23
11
114.606
21
-95.23
0
LINE
8
BLACK
6
CONTINUOUS
10
114.606
20
-95.23
11
114.592
21
-95.2273
0
LINE
8
BLACK
6
CONTINUOUS
10
114.592
20
-95.2273
11
114.581
21
-95.2195
0
LINE
8
BLACK
6
CONTINUOUS
10
114.581
20
-95.2195
11
114.573
21
-95.2078
0
LINE
8
BLACK
6
CONTINUOUS
10
114.573
20
-95.2078
11
114.57
21
-95.194
0
LINE
8
BLACK
6
CONTINUOUS
10
114.57
20
-95.194
11
114.57
21
-94.906
0
LINE
8
BLACK
6
CONTINUOUS
10
114.57
20
-94.906
11
114.573
21
-94.8922
0
LINE
8
BLACK
6
CONTINUOUS
10
114.573
20
-94.8922
11
114.581
21
-94.8805
0
LINE
8
BLACK
6
CONTINUOUS
10
114.581
20
-94.8805
11
114.592
21
-94.8727
0
LINE
8
BLACK
6
CONTINUOUS
10
114.592
20
-94.8727
11
114.606
21
-94.87
0
LINE
8
BLACK
6
CONTINUOUS
10
114.606
20
-94.87
11
114.994
21
-94.87
0
LINE
8
BLACK
6
CONTINUOUS
10
114.994
20
-94.87
11
115.008
21
-94.8727
0
LINE
8
BLACK
6
CONTINUOUS
10
142.962
20
-93.4614
11
143.011
21
-93.4939
0
LINE
8
BLACK
6
CONTINUOUS
10
143.011
20
-93.4939
11
143.044
21
-93.5426
0
LINE
8
BLACK
6
CONTINUOUS
10
143.044
20
-93.5426
11
143.055
21
-93.6
0
LINE
8
BLACK
6
CONTINUOUS
10
143.055
20
-93.6
11
143.055
21
-94.9
0
LINE
8
BLACK
6
CONTINUOUS
10
143.055
20
-94.9
11
143.044
21
-94.9574
0
LINE
8
BLACK
6
CONTINUOUS
10
143.044
20
-94.9574
11
143.011
21
-95.0061
0
LINE
8
BLACK
6
CONTINUOUS
10
143.011
20
-95.0061
11
142.962
21
-95.0386
0
LINE
8
BLACK
6
CONTINUOUS
10
142.962
20
-95.0386
11
142.905
21
-95.05
0
LINE
8
BLACK
6
CONTINUOUS
10
142.905
20
-95.05
11
142.605
21
-95.05
0
LINE
8
BLACK
6
CONTINUOUS
10
142.605
20
-95.05
11
142.548
21
-95.0386
0
LINE
8
BLACK
6
CONTINUOUS
10
142.548
20
-95.0386
11
142.499
21
-95.0061
0
LINE
8
BLACK
6
CONTINUOUS
10
142.499
20
-95.0061
11
142.466
21
-94.9574
0
LINE
8
BLACK
6
CONTINUOUS
10
142.466
20
-94.9574
11
142.455
21
-94.9
0
LINE
8
BLACK
6
CONTINUOUS
10
142.455
20
-94.9
11
142.455
21
-93.6
0
LINE
8
BLACK
6
CONTINUOUS
10
142.455
20
-93.6
11
142.466
21
-93.5426
0
LINE
8
BLACK
6
CONTINUOUS
10
142.466
20
-93.5426
11
142.499
21
-93.4939
0
LINE
8
BLACK
6
CONTINUOUS
10
142.499
20
-93.4939
11
142.548
21
-93.4614
0
LINE
8
BLACK
6
CONTINUOUS
10
142.548
20
-93.4614
11
142.605
21
-93.45
0
LINE
8
BLACK
6
CONTINUOUS
10
142.605
20
-93.45
11
142.905
21
-93.45
0
LINE
8
BLACK
6
CONTINUOUS
10
142.905
20
-93.45
11
142.962
21
-93.4614
0
LINE
8
BLACK
6
CONTINUOUS
10
141.692
20
-93.4614
11
141.741
21
-93.4939
0
LINE
8
BLACK
6
CONTINUOUS
10
141.741
20
-93.4939
11
141.774
21
-93.5426
0
LINE
8
BLACK
6
CONTINUOUS
10
141.774
20
-93.5426
11
141.785
21
-93.6
0
LINE
8
BLACK
6
CONTINUOUS
10
141.785
20
-93.6
11
141.785
21
-94.9
0
LINE
8
BLACK
6
CONTINUOUS
10
141.785
20
-94.9
11
141.774
21
-94.9574
0
LINE
8
BLACK
6
CONTINUOUS
10
141.774
20
-94.9574
11
141.741
21
-95.0061
0
LINE
8
BLACK
6
CONTINUOUS
10
141.741
20
-95.0061
11
141.692
21
-95.0386
0
LINE
8
BLACK
6
CONTINUOUS
10
141.692
20
-95.0386
11
141.635
21
-95.05
0
LINE
8
BLACK
6
CONTINUOUS
10
141.635
20
-95.05
11
141.335
21
-95.05
0
LINE
8
BLACK
6
CONTINUOUS
10
141.335
20
-95.05
11
141.278
21
-95.0386
0
LINE
8
BLACK
6
CONTINUOUS
10
141.278
20
-95.0386
11
141.229
21
-95.0061
0
LINE
8
BLACK
6
CONTINUOUS
10
141.229
20
-95.0061
11
141.196
21
-94.9574
0
LINE
8
BLACK
6
CONTINUOUS
10
141.196
20
-94.9574
11
141.185
21
-94.9
0
LINE
8
BLACK
6
CONTINUOUS
10
141.185
20
-94.9
11
141.185
21
-93.6
0
LINE
8
BLACK
6
CONTINUOUS
10
141.185
20
-93.6
11
141.196
21
-93.5426
0
LINE
8
BLACK
6
CONTINUOUS
10
141.196
20
-93.5426
11
141.229
21
-93.4939
0
LINE
8
BLACK
6
CONTINUOUS
10
141.229
20
-93.4939
11
141.278
21
-93.4614
0
LINE
8
BLACK
6
CONTINUOUS
10
141.278
20
-93.4614
11
141.335
21
-93.45
0
LINE
8
BLACK
6
CONTINUOUS
10
141.335
20
-93.45
11
141.635
21
-93.45
0
LINE
8
BLACK
6
CONTINUOUS
10
141.635
20
-93.45
11
141.692
21
-93.4614
0
LINE
8
BLACK
6
CONTINUOUS
10
140.422
20
-93.4614
11
140.471
21
-93.4939
0
LINE
8
BLACK
6
CONTINUOUS
10
140.471
20
-93.4939
11
140.504
21
-93.5426
0
LINE
8
BLACK
6
CONTINUOUS
10
140.504
20
-93.5426
11
140.515
21
-93.6
0
LINE
8
BLACK
6
CONTINUOUS
10
140.515
20
-93.6
11
140.515
21
-94.9
0
LINE
8
BLACK
6
CONTINUOUS
10
140.515
20
-94.9
11
140.504
21
-94.9574
0
LINE
8
BLACK
6
CONTINUOUS
10
140.504
20
-94.9574
11
140.471
21
-95.0061
0
LINE
8
BLACK
6
CONTINUOUS
10
140.471
20
-95.0061
11
140.422
21
-95.0386
0
LINE
8
BLACK
6
CONTINUOUS
10
140.422
20
-95.0386
11
140.365
21
-95.05
0
LINE
8
BLACK
6
CONTINUOUS
10
140.365
20
-95.05
11
140.065
21
-95.05
0
LINE
8
BLACK
6
CONTINUOUS
10
140.065
20
-95.05
11
140.008
21
-95.0386
0
LINE
8
BLACK
6
CONTINUOUS
10
140.008
20
-95.0386
11
139.959
21
-95.0061
0
LINE
8
BLACK
6
CONTINUOUS
10
139.959
20
-95.0061
11
139.926
21
-94.9574
0
LINE
8
BLACK
6
CONTINUOUS
10
139.926
20
-94.9574
11
139.915
21
-94.9
0
LINE
8
BLACK
6
CONTINUOUS
10
139.915
20
-94.9
11
139.915
21
-93.6
0
LINE
8
BLACK
6
CONTINUOUS
10
139.915
20
-93.6
11
139.926
21
-93.5426
0
LINE
8
BLACK
6
CONTINUOUS
10
139.926
20
-93.5426
11
139.959
21
-93.4939
0
LINE
8
BLACK
6
CONTINUOUS
10
139.959
20
-93.4939
11
140.008
21
-93.4614
0
LINE
8
BLACK
6
CONTINUOUS
10
140.008
20
-93.4614
11
140.065
21
-93.45
0
LINE
8
BLACK
6
CONTINUOUS
10
140.065
20
-93.45
11
140.365
21
-93.45
0
LINE
8
BLACK
6
CONTINUOUS
10
140.365
20
-93.45
11
140.422
21
-93.4614
0
LINE
8
BLACK
6
CONTINUOUS
10
139.152
20
-93.4614
11
139.201
21
-93.4939
0
LINE
8
BLACK
6
CONTINUOUS
10
139.201
20
-93.4939
11
139.234
21
-93.5426
0
LINE
8
BLACK
6
CONTINUOUS
10
139.234
20
-93.5426
11
139.245
21
-93.6
0
LINE
8
BLACK
6
CONTINUOUS
10
139.245
20
-93.6
11
139.245
21
-94.9
0
LINE
8
BLACK
6
CONTINUOUS
10
139.245
20
-94.9
11
139.234
21
-94.9574
0
LINE
8
BLACK
6
CONTINUOUS
10
139.234
20
-94.9574
11
139.201
21
-95.0061
0
LINE
8
BLACK
6
CONTINUOUS
10
139.201
20
-95.0061
11
139.152
21
-95.0386
0
LINE
8
BLACK
6
CONTINUOUS
10
139.152
20
-95.0386
11
139.095
21
-95.05
0
LINE
8
BLACK
6
CONTINUOUS
10
139.095
20
-95.05
11
138.795
21
-95.05
0
LINE
8
BLACK
6
CONTINUOUS
10
138.795
20
-95.05
11
138.738
21
-95.0386
0
LINE
8
BLACK
6
CONTINUOUS
10
138.738
20
-95.0386
11
138.689
21
-95.0061
0
LINE
8
BLACK
6
CONTINUOUS
10
138.689
20
-95.0061
11
138.656
21
-94.9574
0
LINE
8
BLACK
6
CONTINUOUS
10
138.656
20
-94.9574
11
138.645
21
-94.9
0
LINE
8
BLACK
6
CONTINUOUS
10
138.645
20
-94.9
11
138.645
21
-93.6
0
LINE
8
BLACK
6
CONTINUOUS
10
138.645
20
-93.6
11
138.656
21
-93.5426
0
LINE
8
BLACK
6
CONTINUOUS
10
138.656
20
-93.5426
11
138.689
21
-93.4939
0
LINE
8
BLACK
6
CONTINUOUS
10
138.689
20
-93.4939
11
138.738
21
-93.4614
0
LINE
8
BLACK
6
CONTINUOUS
10
138.738
20
-93.4614
11
138.795
21
-93.45
0
LINE
8
BLACK
6
CONTINUOUS
10
138.795
20
-93.45
11
139.095
21
-93.45
0
LINE
8
BLACK
6
CONTINUOUS
10
139.095
20
-93.45
11
139.152
21
-93.4614
0
LINE
8
BLACK
6
CONTINUOUS
10
130.319
20
-94.0288
11
130.335
21
-94.0396
0
LINE
8
BLACK
6
CONTINUOUS
10
130.335
20
-94.0396
11
130.346
21
-94.0559
0
LINE
8
BLACK
6
CONTINUOUS
10
130.346
20
-94.0559
11
130.35
21
-94.075
0
LINE
8
BLACK
6
CONTINUOUS
10
130.35
20
-94.075
11
130.35
21
-94.85
0
LINE
8
BLACK
6
CONTINUOUS
10
130.35
20
-94.85
11
130.346
21
-94.8691
0
LINE
8
BLACK
6
CONTINUOUS
10
130.346
20
-94.8691
11
130.335
21
-94.8854
0
LINE
8
BLACK
6
CONTINUOUS
10
130.335
20
-94.8854
11
130.319
21
-94.8962
0
LINE
8
BLACK
6
CONTINUOUS
10
130.319
20
-94.8962
11
130.3
21
-94.9
0
LINE
8
BLACK
6
CONTINUOUS
10
130.3
20
-94.9
11
130.2
21
-94.9
0
LINE
8
BLACK
6
CONTINUOUS
10
130.2
20
-94.9
11
130.181
21
-94.8962
0
LINE
8
BLACK
6
CONTINUOUS
10
130.181
20
-94.8962
11
130.165
21
-94.8854
0
LINE
8
BLACK
6
CONTINUOUS
10
130.165
20
-94.8854
11
130.154
21
-94.8691
0
LINE
8
BLACK
6
CONTINUOUS
10
130.154
20
-94.8691
11
130.15
21
-94.85
0
LINE
8
BLACK
6
CONTINUOUS
10
130.15
20
-94.85
11
130.15
21
-94.075
0
LINE
8
BLACK
6
CONTINUOUS
10
130.15
20
-94.075
11
130.154
21
-94.0559
0
LINE
8
BLACK
6
CONTINUOUS
10
130.154
20
-94.0559
11
130.165
21
-94.0396
0
LINE
8
BLACK
6
CONTINUOUS
10
130.165
20
-94.0396
11
130.181
21
-94.0288
0
LINE
8
BLACK
6
CONTINUOUS
10
130.181
20
-94.0288
11
130.2
21
-94.025
0
LINE
8
BLACK
6
CONTINUOUS
10
130.2
20
-94.025
11
130.3
21
-94.025
0
LINE
8
BLACK
6
CONTINUOUS
10
130.3
20
-94.025
11
130.319
21
-94.0288
0
LINE
8
BLACK
6
CONTINUOUS
10
129.919
20
-94.0288
11
129.935
21
-94.0396
0
LINE
8
BLACK
6
CONTINUOUS
10
129.935
20
-94.0396
11
129.946
21
-94.0559
0
LINE
8
BLACK
6
CONTINUOUS
10
129.946
20
-94.0559
11
129.95
21
-94.075
0
LINE
8
BLACK
6
CONTINUOUS
10
129.95
20
-94.075
11
129.95
21
-94.85
0
LINE
8
BLACK
6
CONTINUOUS
10
129.95
20
-94.85
11
129.946
21
-94.8691
0
LINE
8
BLACK
6
CONTINUOUS
10
129.946
20
-94.8691
11
129.935
21
-94.8854
0
LINE
8
BLACK
6
CONTINUOUS
10
129.935
20
-94.8854
11
129.919
21
-94.8962
0
LINE
8
BLACK
6
CONTINUOUS
10
129.919
20
-94.8962
11
129.9
21
-94.9
0
LINE
8
BLACK
6
CONTINUOUS
10
129.9
20
-94.9
11
129.8
21
-94.9
0
LINE
8
BLACK
6
CONTINUOUS
10
129.8
20
-94.9
11
129.781
21
-94.8962
0
LINE
8
BLACK
6
CONTINUOUS
10
129.781
20
-94.8962
11
129.765
21
-94.8854
0
LINE
8
BLACK
6
CONTINUOUS
10
129.765
20
-94.8854
11
129.754
21
-94.8691
0
LINE
8
BLACK
6
CONTINUOUS
10
129.754
20
-94.8691
11
129.75
21
-94.85
0
LINE
8
BLACK
6
CONTINUOUS
10
129.75
20
-94.85
11
129.75
21
-94.075
0
LINE
8
BLACK
6
CONTINUOUS
10
129.75
20
-94.075
11
129.754
21
-94.0559
0
LINE
8
BLACK
6
CONTINUOUS
10
129.754
20
-94.0559
11
129.765
21
-94.0396
0
LINE
8
BLACK
6
CONTINUOUS
10
129.765
20
-94.0396
11
129.781
21
-94.0288
0
LINE
8
BLACK
6
CONTINUOUS
10
129.781
20
-94.0288
11
129.8
21
-94.025
0
LINE
8
BLACK
6
CONTINUOUS
10
129.8
20
-94.025
11
129.9
21
-94.025
0
LINE
8
BLACK
6
CONTINUOUS
10
129.9
20
-94.025
11
129.919
21
-94.0288
0
LINE
8
BLACK
6
CONTINUOUS
10
130.719
20
-94.0288
11
130.735
21
-94.0396
0
LINE
8
BLACK
6
CONTINUOUS
10
130.735
20
-94.0396
11
130.746
21
-94.0559
0
LINE
8
BLACK
6
CONTINUOUS
10
130.746
20
-94.0559
11
130.75
21
-94.075
0
LINE
8
BLACK
6
CONTINUOUS
10
130.75
20
-94.075
11
130.75
21
-94.85
0
LINE
8
BLACK
6
CONTINUOUS
10
130.75
20
-94.85
11
130.746
21
-94.8691
0
LINE
8
BLACK
6
CONTINUOUS
10
130.746
20
-94.8691
11
130.735
21
-94.8854
0
LINE
8
BLACK
6
CONTINUOUS
10
130.735
20
-94.8854
11
130.719
21
-94.8962
0
LINE
8
BLACK
6
CONTINUOUS
10
130.719
20
-94.8962
11
130.7
21
-94.9
0
LINE
8
BLACK
6
CONTINUOUS
10
130.7
20
-94.9
11
130.6
21
-94.9
0
LINE
8
BLACK
6
CONTINUOUS
10
130.6
20
-94.9
11
130.581
21
-94.8962
0
LINE
8
BLACK
6
CONTINUOUS
10
130.581
20
-94.8962
11
130.565
21
-94.8854
0
LINE
8
BLACK
6
CONTINUOUS
10
130.565
20
-94.8854
11
130.554
21
-94.8691
0
LINE
8
BLACK
6
CONTINUOUS
10
130.554
20
-94.8691
11
130.55
21
-94.85
0
LINE
8
BLACK
6
CONTINUOUS
10
130.55
20
-94.85
11
130.55
21
-94.075
0
LINE
8
BLACK
6
CONTINUOUS
10
130.55
20
-94.075
11
130.554
21
-94.0559
0
LINE
8
BLACK
6
CONTINUOUS
10
130.554
20
-94.0559
11
130.565
21
-94.0396
0
LINE
8
BLACK
6
CONTINUOUS
10
130.565
20
-94.0396
11
130.581
21
-94.0288
0
LINE
8
BLACK
6
CONTINUOUS
10
130.581
20
-94.0288
11
130.6
21
-94.025
0
LINE
8
BLACK
6
CONTINUOUS
10
130.6
20
-94.025
11
130.7
21
-94.025
0
LINE
8
BLACK
6
CONTINUOUS
10
130.7
20
-94.025
11
130.719
21
-94.0288
0
LINE
8
BLACK
6
CONTINUOUS
10
131.119
20
-94.0288
11
131.135
21
-94.0396
0
LINE
8
BLACK
6
CONTINUOUS
10
131.135
20
-94.0396
11
131.146
21
-94.0559
0
LINE
8
BLACK
6
CONTINUOUS
10
131.146
20
-94.0559
11
131.15
21
-94.075
0
LINE
8
BLACK
6
CONTINUOUS
10
131.15
20
-94.075
11
131.15
21
-94.85
0
LINE
8
BLACK
6
CONTINUOUS
10
131.15
20
-94.85
11
131.146
21
-94.8691
0
LINE
8
BLACK
6
CONTINUOUS
10
131.146
20
-94.8691
11
131.135
21
-94.8854
0
LINE
8
BLACK
6
CONTINUOUS
10
131.135
20
-94.8854
11
131.119
21
-94.8962
0
LINE
8
BLACK
6
CONTINUOUS
10
131.119
20
-94.8962
11
131.1
21
-94.9
0
LINE
8
BLACK
6
CONTINUOUS
10
131.1
20
-94.9
11
131
21
-94.9
0
LINE
8
BLACK
6
CONTINUOUS
10
131
20
-94.9
11
130.981
21
-94.8962
0
LINE
8
BLACK
6
CONTINUOUS
10
130.981
20
-94.8962
11
130.965
21
-94.8854
0
LINE
8
BLACK
6
CONTINUOUS
10
130.965
20
-94.8854
11
130.954
21
-94.8691
0
LINE
8
BLACK
6
CONTINUOUS
10
130.954
20
-94.8691
11
130.95
21
-94.85
0
LINE
8
BLACK
6
CONTINUOUS
10
130.95
20
-94.85
11
130.95
21
-94.075
0
LINE
8
BLACK
6
CONTINUOUS
10
130.95
20
-94.075
11
130.954
21
-94.0559
0
LINE
8
BLACK
6
CONTINUOUS
10
130.954
20
-94.0559
11
130.965
21
-94.0396
0
LINE
8
BLACK
6
CONTINUOUS
10
130.965
20
-94.0396
11
130.981
21
-94.0288
0
LINE
8
BLACK
6
CONTINUOUS
10
130.981
20
-94.0288
11
131
21
-94.025
0
LINE
8
BLACK
6
CONTINUOUS
10
131
20
-94.025
11
131.1
21
-94.025
0
LINE
8
BLACK
6
CONTINUOUS
10
131.1
20
-94.025
11
131.119
21
-94.0288
0
LINE
8
BLACK
6
CONTINUOUS
10
131.519
20
-94.0288
11
131.535
21
-94.0396
0
LINE
8
BLACK
6
CONTINUOUS
10
131.535
20
-94.0396
11
131.546
21
-94.0559
0
LINE
8
BLACK
6
CONTINUOUS
10
131.546
20
-94.0559
11
131.55
21
-94.075
0
LINE
8
BLACK
6
CONTINUOUS
10
131.55
20
-94.075
11
131.55
21
-94.85
0
LINE
8
BLACK
6
CONTINUOUS
10
131.55
20
-94.85
11
131.546
21
-94.8691
0
LINE
8
BLACK
6
CONTINUOUS
10
131.546
20
-94.8691
11
131.535
21
-94.8854
0
LINE
8
BLACK
6
CONTINUOUS
10
131.535
20
-94.8854
11
131.519
21
-94.8962
0
LINE
8
BLACK
6
CONTINUOUS
10
131.519
20
-94.8962
11
131.5
21
-94.9
0
LINE
8
BLACK
6
CONTINUOUS
10
131.5
20
-94.9
11
131.4
21
-94.9
0
LINE
8
BLACK
6
CONTINUOUS
10
131.4
20
-94.9
11
131.381
21
-94.8962
0
LINE
8
BLACK
6
CONTINUOUS
10
131.381
20
-94.8962
11
131.365
21
-94.8854
0
LINE
8
BLACK
6
CONTINUOUS
10
131.365
20
-94.8854
11
131.354
21
-94.8691
0
LINE
8
BLACK
6
CONTINUOUS
10
131.354
20
-94.8691
11
131.35
21
-94.85
0
LINE
8
BLACK
6
CONTINUOUS
10
131.35
20
-94.85
11
131.35
21
-94.075
0
LINE
8
BLACK
6
CONTINUOUS
10
131.35
20
-94.075
11
131.354
21
-94.0559
0
LINE
8
BLACK
6
CONTINUOUS
10
131.354
20
-94.0559
11
131.365
21
-94.0396
0
LINE
8
BLACK
6
CONTINUOUS
10
131.365
20
-94.0396
11
131.381
21
-94.0288
0
LINE
8
BLACK
6
CONTINUOUS
10
131.381
20
-94.0288
11
131.4
21
-94.025
0
LINE
8
BLACK
6
CONTINUOUS
10
131.4
20
-94.025
11
131.5
21
-94.025
0
LINE
8
BLACK
6
CONTINUOUS
10
131.5
20
-94.025
11
131.519
21
-94.0288
0
LINE
8
BLACK
6
CONTINUOUS
10
134.719
20
-94.0288
11
134.735
21
-94.0396
0
LINE
8
BLACK
6
CONTINUOUS
10
134.735
20
-94.0396
11
134.746
21
-94.0559
0
LINE
8
BLACK
6
CONTINUOUS
10
134.746
20
-94.0559
11
134.75
21
-94.075
0
LINE
8
BLACK
6
CONTINUOUS
10
134.75
20
-94.075
11
134.75
21
-94.85
0
LINE
8
BLACK
6
CONTINUOUS
10
134.75
20
-94.85
11
134.746
21
-94.8691
0
LINE
8
BLACK
6
CONTINUOUS
10
134.746
20
-94.8691
11
134.735
21
-94.8854
0
LINE
8
BLACK
6
CONTINUOUS
10
134.735
20
-94.8854
11
134.719
21
-94.8962
0
LINE
8
BLACK
6
CONTINUOUS
10
134.719
20
-94.8962
11
134.7
21
-94.9
0
LINE
8
BLACK
6
CONTINUOUS
10
134.7
20
-94.9
11
134.6
21
-94.9
0
LINE
8
BLACK
6
CONTINUOUS
10
134.6
20
-94.9
11
134.581
21
-94.8962
0
LINE
8
BLACK
6
CONTINUOUS
10
134.581
20
-94.8962
11
134.565
21
-94.8854
0
LINE
8
BLACK
6
CONTINUOUS
10
134.565
20
-94.8854
11
134.554
21
-94.8691
0
LINE
8
BLACK
6
CONTINUOUS
10
134.554
20
-94.8691
11
134.55
21
-94.85
0
LINE
8
BLACK
6
CONTINUOUS
10
134.55
20
-94.85
11
134.55
21
-94.075
0
LINE
8
BLACK
6
CONTINUOUS
10
134.55
20
-94.075
11
134.554
21
-94.0559
0
LINE
8
BLACK
6
CONTINUOUS
10
134.554
20
-94.0559
11
134.565
21
-94.0396
0
LINE
8
BLACK
6
CONTINUOUS
10
134.565
20
-94.0396
11
134.581
21
-94.0288
0
LINE
8
BLACK
6
CONTINUOUS
10
134.581
20
-94.0288
11
134.6
21
-94.025
0
LINE
8
BLACK
6
CONTINUOUS
10
134.6
20
-94.025
11
134.7
21
-94.025
0
LINE
8
BLACK
6
CONTINUOUS
10
134.7
20
-94.025
11
134.719
21
-94.0288
0
LINE
8
BLACK
6
CONTINUOUS
10
133.919
20
-94.0288
11
133.935
21
-94.0396
0
LINE
8
BLACK
6
CONTINUOUS
10
133.935
20
-94.0396
11
133.946
21
-94.0559
0
LINE
8
BLACK
6
CONTINUOUS
10
133.946
20
-94.0559
11
133.95
21
-94.075
0
LINE
8
BLACK
6
CONTINUOUS
10
133.95
20
-94.075
11
133.95
21
-94.85
0
LINE
8
BLACK
6
CONTINUOUS
10
133.95
20
-94.85
11
133.946
21
-94.8691
0
LINE
8
BLACK
6
CONTINUOUS
10
133.946
20
-94.8691
11
133.935
21
-94.8854
0
LINE
8
BLACK
6
CONTINUOUS
10
133.935
20
-94.8854
11
133.919
21
-94.8962
0
LINE
8
BLACK
6
CONTINUOUS
10
133.919
20
-94.8962
11
133.9
21
-94.9
0
LINE
8
BLACK
6
CONTINUOUS
10
133.9
20
-94.9
11
133.8
21
-94.9
0
LINE
8
BLACK
6
CONTINUOUS
10
133.8
20
-94.9
11
133.781
21
-94.8962
0
LINE
8
BLACK
6
CONTINUOUS
10
133.781
20
-94.8962
11
133.765
21
-94.8854
0
LINE
8
BLACK
6
CONTINUOUS
10
133.765
20
-94.8854
11
133.754
21
-94.8691
0
LINE
8
BLACK
6
CONTINUOUS
10
133.754
20
-94.8691
11
133.75
21
-94.85
0
LINE
8
BLACK
6
CONTINUOUS
10
133.75
20
-94.85
11
133.75
21
-94.075
0
LINE
8
BLACK
6
CONTINUOUS
10
133.75
20
-94.075
11
133.754
21
-94.0559
0
LINE
8
BLACK
6
CONTINUOUS
10
133.754
20
-94.0559
11
133.765
21
-94.0396
0
LINE
8
BLACK
6
CONTINUOUS
10
133.765
20
-94.0396
11
133.781
21
-94.0288
0
LINE
8
BLACK
6
CONTINUOUS
10
133.781
20
-94.0288
11
133.8
21
-94.025
0
LINE
8
BLACK
6
CONTINUOUS
10
133.8
20
-94.025
11
133.9
21
-94.025
0
LINE
8
BLACK
6
CONTINUOUS
10
133.9
20
-94.025
11
133.919
21
-94.0288
0
LINE
8
BLACK
6
CONTINUOUS
10
133.519
20
-94.0288
11
133.535
21
-94.0396
0
LINE
8
BLACK
6
CONTINUOUS
10
133.535
20
-94.0396
11
133.546
21
-94.0559
0
LINE
8
BLACK
6
CONTINUOUS
10
133.546
20
-94.0559
11
133.55
21
-94.075
0
LINE
8
BLACK
6
CONTINUOUS
10
133.55
20
-94.075
11
133.55
21
-94.85
0
LINE
8
BLACK
6
CONTINUOUS
10
133.55
20
-94.85
11
133.546
21
-94.8691
0
LINE
8
BLACK
6
CONTINUOUS
10
133.546
20
-94.8691
11
133.535
21
-94.8854
0
LINE
8
BLACK
6
CONTINUOUS
10
133.535
20
-94.8854
11
133.519
21
-94.8962
0
LINE
8
BLACK
6
CONTINUOUS
10
133.519
20
-94.8962
11
133.5
21
-94.9
0
LINE
8
BLACK
6
CONTINUOUS
10
133.5
20
-94.9
11
133.4
21
-94.9
0
LINE
8
BLACK
6
CONTINUOUS
10
133.4
20
-94.9
11
133.381
21
-94.8962
0
LINE
8
BLACK
6
CONTINUOUS
10
133.381
20
-94.8962
11
133.365
21
-94.8854
0
LINE
8
BLACK
6
CONTINUOUS
10
133.365
20
-94.8854
11
133.354
21
-94.8691
0
LINE
8
BLACK
6
CONTINUOUS
10
133.354
20
-94.8691
11
133.35
21
-94.85
0
LINE
8
BLACK
6
CONTINUOUS
10
133.35
20
-94.85
11
133.35
21
-94.075
0
LINE
8
BLACK
6
CONTINUOUS
10
133.35
20
-94.075
11
133.354
21
-94.0559
0
LINE
8
BLACK
6
CONTINUOUS
10
133.354
20
-94.0559
11
133.365
21
-94.0396
0
LINE
8
BLACK
6
CONTINUOUS
10
133.365
20
-94.0396
11
133.381
21
-94.0288
0
LINE
8
BLACK
6
CONTINUOUS
10
133.381
20
-94.0288
11
133.4
21
-94.025
0
LINE
8
BLACK
6
CONTINUOUS
10
133.4
20
-94.025
11
133.5
21
-94.025
0
LINE
8
BLACK
6
CONTINUOUS
10
133.5
20
-94.025
11
133.519
21
-94.0288
0
LINE
8
BLACK
6
CONTINUOUS
10
134.319
20
-94.0288
11
134.335
21
-94.0396
0
LINE
8
BLACK
6
CONTINUOUS
10
134.335
20
-94.0396
11
134.346
21
-94.0559
0
LINE
8
BLACK
6
CONTINUOUS
10
134.346
20
-94.0559
11
134.35
21
-94.075
0
LINE
8
BLACK
6
CONTINUOUS
10
134.35
20
-94.075
11
134.35
21
-94.85
0
LINE
8
BLACK
6
CONTINUOUS
10
134.35
20
-94.85
11
134.346
21
-94.8691
0
LINE
8
BLACK
6
CONTINUOUS
10
134.346
20
-94.8691
11
134.335
21
-94.8854
0
LINE
8
BLACK
6
CONTINUOUS
10
134.335
20
-94.8854
11
134.319
21
-94.8962
0
LINE
8
BLACK
6
CONTINUOUS
10
134.319
20
-94.8962
11
134.3
21
-94.9
0
LINE
8
BLACK
6
CONTINUOUS
10
134.3
20
-94.9
11
134.2
21
-94.9
0
LINE
8
BLACK
6
CONTINUOUS
10
134.2
20
-94.9
11
134.181
21
-94.8962
0
LINE
8
BLACK
6
CONTINUOUS
10
134.181
20
-94.8962
11
134.165
21
-94.8854
0
LINE
8
BLACK
6
CONTINUOUS
10
134.165
20
-94.8854
11
134.154
21
-94.8691
0
LINE
8
BLACK
6
CONTINUOUS
10
134.154
20
-94.8691
11
134.15
21
-94.85
0
LINE
8
BLACK
6
CONTINUOUS
10
134.15
20
-94.85
11
134.15
21
-94.075
0
LINE
8
BLACK
6
CONTINUOUS
10
134.15
20
-94.075
11
134.154
21
-94.0559
0
LINE
8
BLACK
6
CONTINUOUS
10
134.154
20
-94.0559
11
134.165
21
-94.0396
0
LINE
8
BLACK
6
CONTINUOUS
10
134.165
20
-94.0396
11
134.181
21
-94.0288
0
LINE
8
BLACK
6
CONTINUOUS
10
134.181
20
-94.0288
11
134.2
21
-94.025
0
LINE
8
BLACK
6
CONTINUOUS
10
134.2
20
-94.025
11
134.3
21
-94.025
0
LINE
8
BLACK
6
CONTINUOUS
10
134.3
20
-94.025
11
134.319
21
-94.0288
0
LINE
8
BLACK
6
CONTINUOUS
10
133.119
20
-94.0288
11
133.135
21
-94.0396
0
LINE
8
BLACK
6
CONTINUOUS
10
133.135
20
-94.0396
11
133.146
21
-94.0559
0
LINE
8
BLACK
6
CONTINUOUS
10
133.146
20
-94.0559
11
133.15
21
-94.075
0
LINE
8
BLACK
6
CONTINUOUS
10
133.15
20
-94.075
11
133.15
21
-94.85
0
LINE
8
BLACK
6
CONTINUOUS
10
133.15
20
-94.85
11
133.146
21
-94.8691
0
LINE
8
BLACK
6
CONTINUOUS
10
133.146
20
-94.8691
11
133.135
21
-94.8854
0
LINE
8
BLACK
6
CONTINUOUS
10
133.135
20
-94.8854
11
133.119
21
-94.8962
0
LINE
8
BLACK
6
CONTINUOUS
10
133.119
20
-94.8962
11
133.1
21
-94.9
0
LINE
8
BLACK
6
CONTINUOUS
10
133.1
20
-94.9
11
133
21
-94.9
0
LINE
8
BLACK
6
CONTINUOUS
10
133
20
-94.9
11
132.981
21
-94.8962
0
LINE
8
BLACK
6
CONTINUOUS
10
132.981
20
-94.8962
11
132.965
21
-94.8854
0
LINE
8
BLACK
6
CONTINUOUS
10
132.965
20
-94.8854
11
132.954
21
-94.8691
0
LINE
8
BLACK
6
CONTINUOUS
10
132.954
20
-94.8691
11
132.95
21
-94.85
0
LINE
8
BLACK
6
CONTINUOUS
10
132.95
20
-94.85
11
132.95
21
-94.075
0
LINE
8
BLACK
6
CONTINUOUS
10
132.95
20
-94.075
11
132.954
21
-94.0559
0
LINE
8
BLACK
6
CONTINUOUS
10
132.954
20
-94.0559
11
132.965
21
-94.0396
0
LINE
8
BLACK
6
CONTINUOUS
10
132.965
20
-94.0396
11
132.981
21
-94.0288
0
LINE
8
BLACK
6
CONTINUOUS
10
132.981
20
-94.0288
11
133
21
-94.025
0
LINE
8
BLACK
6
CONTINUOUS
10
133
20
-94.025
11
133.1
21
-94.025
0
LINE
8
BLACK
6
CONTINUOUS
10
133.1
20
-94.025
11
133.119
21
-94.0288
0
LINE
8
BLACK
6
CONTINUOUS
10
131.919
20
-94.0288
11
131.935
21
-94.0396
0
LINE
8
BLACK
6
CONTINUOUS
10
131.935
20
-94.0396
11
131.946
21
-94.0559
0
LINE
8
BLACK
6
CONTINUOUS
10
131.946
20
-94.0559
11
131.95
21
-94.075
0
LINE
8
BLACK
6
CONTINUOUS
10
131.95
20
-94.075
11
131.95
21
-94.85
0
LINE
8
BLACK
6
CONTINUOUS
10
131.95
20
-94.85
11
131.946
21
-94.8691
0
LINE
8
BLACK
6
CONTINUOUS
10
131.946
20
-94.8691
11
131.935
21
-94.8854
0
LINE
8
BLACK
6
CONTINUOUS
10
131.935
20
-94.8854
11
131.919
21
-94.8962
0
LINE
8
BLACK
6
CONTINUOUS
10
131.919
20
-94.8962
11
131.9
21
-94.9
0
LINE
8
BLACK
6
CONTINUOUS
10
131.9
20
-94.9
11
131.8
21
-94.9
0
LINE
8
BLACK
6
CONTINUOUS
10
131.8
20
-94.9
11
131.781
21
-94.8962
0
LINE
8
BLACK
6
CONTINUOUS
10
131.781
20
-94.8962
11
131.765
21
-94.8854
0
LINE
8
BLACK
6
CONTINUOUS
10
131.765
20
-94.8854
11
131.754
21
-94.8691
0
LINE
8
BLACK
6
CONTINUOUS
10
131.754
20
-94.8691
11
131.75
21
-94.85
0
LINE
8
BLACK
6
CONTINUOUS
10
131.75
20
-94.85
11
131.75
21
-94.075
0
LINE
8
BLACK
6
CONTINUOUS
10
131.75
20
-94.075
11
131.754
21
-94.0559
0
LINE
8
BLACK
6
CONTINUOUS
10
131.754
20
-94.0559
11
131.765
21
-94.0396
0
LINE
8
BLACK
6
CONTINUOUS
10
131.765
20
-94.0396
11
131.781
21
-94.0288
0
LINE
8
BLACK
6
CONTINUOUS
10
131.781
20
-94.0288
11
131.8
21
-94.025
0
LINE
8
BLACK
6
CONTINUOUS
10
131.8
20
-94.025
11
131.9
21
-94.025
0
LINE
8
BLACK
6
CONTINUOUS
10
131.9
20
-94.025
11
131.919
21
-94.0288
0
LINE
8
BLACK
6
CONTINUOUS
10
132.719
20
-94.0288
11
132.735
21
-94.0396
0
LINE
8
BLACK
6
CONTINUOUS
10
132.735
20
-94.0396
11
132.746
21
-94.0559
0
LINE
8
BLACK
6
CONTINUOUS
10
132.746
20
-94.0559
11
132.75
21
-94.075
0
LINE
8
BLACK
6
CONTINUOUS
10
132.75
20
-94.075
11
132.75
21
-94.85
0
LINE
8
BLACK
6
CONTINUOUS
10
132.75
20
-94.85
11
132.746
21
-94.8691
0
LINE
8
BLACK
6
CONTINUOUS
10
132.746
20
-94.8691
11
132.735
21
-94.8854
0
LINE
8
BLACK
6
CONTINUOUS
10
132.735
20
-94.8854
11
132.719
21
-94.8962
0
LINE
8
BLACK
6
CONTINUOUS
10
132.719
20
-94.8962
11
132.7
21
-94.9
0
LINE
8
BLACK
6
CONTINUOUS
10
132.7
20
-94.9
11
132.6
21
-94.9
0
LINE
8
BLACK
6
CONTINUOUS
10
132.6
20
-94.9
11
132.581
21
-94.8962
0
LINE
8
BLACK
6
CONTINUOUS
10
132.581
20
-94.8962
11
132.565
21
-94.8854
0
LINE
8
BLACK
6
CONTINUOUS
10
132.565
20
-94.8854
11
132.554
21
-94.8691
0
LINE
8
BLACK
6
CONTINUOUS
10
132.554
20
-94.8691
11
132.55
21
-94.85
0
LINE
8
BLACK
6
CONTINUOUS
10
132.55
20
-94.85
11
132.55
21
-94.075
0
LINE
8
BLACK
6
CONTINUOUS
10
132.55
20
-94.075
11
132.554
21
-94.0559
0
LINE
8
BLACK
6
CONTINUOUS
10
132.554
20
-94.0559
11
132.565
21
-94.0396
0
LINE
8
BLACK
6
CONTINUOUS
10
132.565
20
-94.0396
11
132.581
21
-94.0288
0
LINE
8
BLACK
6
CONTINUOUS
10
132.581
20
-94.0288
11
132.6
21
-94.025
0
LINE
8
BLACK
6
CONTINUOUS
10
132.6
20
-94.025
11
132.7
21
-94.025
0
LINE
8
BLACK
6
CONTINUOUS
10
132.7
20
-94.025
11
132.719
21
-94.0288
0
LINE
8
BLACK
6
CONTINUOUS
10
132.319
20
-94.0288
11
132.335
21
-94.0396
0
LINE
8
BLACK
6
CONTINUOUS
10
132.335
20
-94.0396
11
132.346
21
-94.0559
0
LINE
8
BLACK
6
CONTINUOUS
10
132.346
20
-94.0559
11
132.35
21
-94.075
0
LINE
8
BLACK
6
CONTINUOUS
10
132.35
20
-94.075
11
132.35
21
-94.85
0
LINE
8
BLACK
6
CONTINUOUS
10
132.35
20
-94.85
11
132.346
21
-94.8691
0
LINE
8
BLACK
6
CONTINUOUS
10
132.346
20
-94.8691
11
132.335
21
-94.8854
0
LINE
8
BLACK
6
CONTINUOUS
10
132.335
20
-94.8854
11
132.319
21
-94.8962
0
LINE
8
BLACK
6
CONTINUOUS
10
132.319
20
-94.8962
11
132.3
21
-94.9
0
LINE
8
BLACK
6
CONTINUOUS
10
132.3
20
-94.9
11
132.2
21
-94.9
0
LINE
8
BLACK
6
CONTINUOUS
10
132.2
20
-94.9
11
132.181
21
-94.8962
0
LINE
8
BLACK
6
CONTINUOUS
10
132.181
20
-94.8962
11
132.165
21
-94.8854
0
LINE
8
BLACK
6
CONTINUOUS
10
132.165
20
-94.8854
11
132.154
21
-94.8691
0
LINE
8
BLACK
6
CONTINUOUS
10
132.154
20
-94.8691
11
132.15
21
-94.85
0
LINE
8
BLACK
6
CONTINUOUS
10
132.15
20
-94.85
11
132.15
21
-94.075
0
LINE
8
BLACK
6
CONTINUOUS
10
132.15
20
-94.075
11
132.154
21
-94.0559
0
LINE
8
BLACK
6
CONTINUOUS
10
132.154
20
-94.0559
11
132.165
21
-94.0396
0
LINE
8
BLACK
6
CONTINUOUS
10
132.165
20
-94.0396
11
132.181
21
-94.0288
0
LINE
8
BLACK
6
CONTINUOUS
10
132.181
20
-94.0288
11
132.2
21
-94.025
0
LINE
8
BLACK
6
CONTINUOUS
10
132.2
20
-94.025
11
132.3
21
-94.025
0
LINE
8
BLACK
6
CONTINUOUS
10
132.3
20
-94.025
11
132.319
21
-94.0288
0
LINE
8
BLACK
6
CONTINUOUS
10
129.519
20
-94.0288
11
129.535
21
-94.0396
0
LINE
8
BLACK
6
CONTINUOUS
10
129.535
20
-94.0396
11
129.546
21
-94.0559
0
LINE
8
BLACK
6
CONTINUOUS
10
129.546
20
-94.0559
11
129.55
21
-94.075
0
LINE
8
BLACK
6
CONTINUOUS
10
129.55
20
-94.075
11
129.55
21
-94.85
0
LINE
8
BLACK
6
CONTINUOUS
10
129.55
20
-94.85
11
129.546
21
-94.8691
0
LINE
8
BLACK
6
CONTINUOUS
10
129.546
20
-94.8691
11
129.535
21
-94.8854
0
LINE
8
BLACK
6
CONTINUOUS
10
129.535
20
-94.8854
11
129.519
21
-94.8962
0
LINE
8
BLACK
6
CONTINUOUS
10
129.519
20
-94.8962
11
129.5
21
-94.9
0
LINE
8
BLACK
6
CONTINUOUS
10
129.5
20
-94.9
11
129.4
21
-94.9
0
LINE
8
BLACK
6
CONTINUOUS
10
129.4
20
-94.9
11
129.381
21
-94.8962
0
LINE
8
BLACK
6
CONTINUOUS
10
129.381
20
-94.8962
11
129.365
21
-94.8854
0
LINE
8
BLACK
6
CONTINUOUS
10
129.365
20
-94.8854
11
129.354
21
-94.8691
0
LINE
8
BLACK
6
CONTINUOUS
10
129.354
20
-94.8691
11
129.35
21
-94.85
0
LINE
8
BLACK
6
CONTINUOUS
10
129.35
20
-94.85
11
129.35
21
-94.075
0
LINE
8
BLACK
6
CONTINUOUS
10
129.35
20
-94.075
11
129.354
21
-94.0559
0
LINE
8
BLACK
6
CONTINUOUS
10
129.354
20
-94.0559
11
129.365
21
-94.0396
0
LINE
8
BLACK
6
CONTINUOUS
10
129.365
20
-94.0396
11
129.381
21
-94.0288
0
LINE
8
BLACK
6
CONTINUOUS
10
129.381
20
-94.0288
11
129.4
21
-94.025
0
LINE
8
BLACK
6
CONTINUOUS
10
129.4
20
-94.025
11
129.5
21
-94.025
0
LINE
8
BLACK
6
CONTINUOUS
10
129.5
20
-94.025
11
129.519
21
-94.0288
0
LINE
8
BLACK
6
CONTINUOUS
10
136.758
20
-94.0727
11
136.769
21
-94.0805
0
LINE
8
BLACK
6
CONTINUOUS
10
136.769
20
-94.0805
11
136.777
21
-94.0922
0
LINE
8
BLACK
6
CONTINUOUS
10
136.777
20
-94.0922
11
136.78
21
-94.106
0
LINE
8
BLACK
6
CONTINUOUS
10
136.78
20
-94.106
11
136.78
21
-94.394
0
LINE
8
BLACK
6
CONTINUOUS
10
136.78
20
-94.394
11
136.777
21
-94.4078
0
LINE
8
BLACK
6
CONTINUOUS
10
136.777
20
-94.4078
11
136.769
21
-94.4195
0
LINE
8
BLACK
6
CONTINUOUS
10
136.769
20
-94.4195
11
136.758
21
-94.4273
0
LINE
8
BLACK
6
CONTINUOUS
10
136.758
20
-94.4273
11
136.744
21
-94.43
0
LINE
8
BLACK
6
CONTINUOUS
10
136.744
20
-94.43
11
136.356
21
-94.43
0
LINE
8
BLACK
6
CONTINUOUS
10
136.356
20
-94.43
11
136.342
21
-94.4273
0
LINE
8
BLACK
6
CONTINUOUS
10
136.342
20
-94.4273
11
136.331
21
-94.4195
0
LINE
8
BLACK
6
CONTINUOUS
10
136.331
20
-94.4195
11
136.323
21
-94.4078
0
LINE
8
BLACK
6
CONTINUOUS
10
136.323
20
-94.4078
11
136.32
21
-94.394
0
LINE
8
BLACK
6
CONTINUOUS
10
136.32
20
-94.394
11
136.32
21
-94.106
0
LINE
8
BLACK
6
CONTINUOUS
10
136.32
20
-94.106
11
136.323
21
-94.0922
0
LINE
8
BLACK
6
CONTINUOUS
10
136.323
20
-94.0922
11
136.331
21
-94.0805
0
LINE
8
BLACK
6
CONTINUOUS
10
136.331
20
-94.0805
11
136.342
21
-94.0727
0
LINE
8
BLACK
6
CONTINUOUS
10
136.342
20
-94.0727
11
136.356
21
-94.07
0
LINE
8
BLACK
6
CONTINUOUS
10
136.356
20
-94.07
11
136.744
21
-94.07
0
LINE
8
BLACK
6
CONTINUOUS
10
136.744
20
-94.07
11
136.758
21
-94.0727
0
LINE
8
BLACK
6
CONTINUOUS
10
115.858
20
-93.9727
11
115.869
21
-93.9805
0
LINE
8
BLACK
6
CONTINUOUS
10
115.869
20
-93.9805
11
115.877
21
-93.9922
0
LINE
8
BLACK
6
CONTINUOUS
10
115.877
20
-93.9922
11
115.88
21
-94.006
0
LINE
8
BLACK
6
CONTINUOUS
10
115.88
20
-94.006
11
115.88
21
-94.294
0
LINE
8
BLACK
6
CONTINUOUS
10
115.88
20
-94.294
11
115.877
21
-94.3078
0
LINE
8
BLACK
6
CONTINUOUS
10
115.877
20
-94.3078
11
115.869
21
-94.3195
0
LINE
8
BLACK
6
CONTINUOUS
10
115.869
20
-94.3195
11
115.858
21
-94.3273
0
LINE
8
BLACK
6
CONTINUOUS
10
115.858
20
-94.3273
11
115.844
21
-94.33
0
LINE
8
BLACK
6
CONTINUOUS
10
115.844
20
-94.33
11
115.456
21
-94.33
0
LINE
8
BLACK
6
CONTINUOUS
10
115.456
20
-94.33
11
115.442
21
-94.3273
0
LINE
8
BLACK
6
CONTINUOUS
10
115.442
20
-94.3273
11
115.431
21
-94.3195
0
LINE
8
BLACK
6
CONTINUOUS
10
115.431
20
-94.3195
11
115.423
21
-94.3078
0
LINE
8
BLACK
6
CONTINUOUS
10
115.423
20
-94.3078
11
115.42
21
-94.294
0
LINE
8
BLACK
6
CONTINUOUS
10
115.42
20
-94.294
11
115.42
21
-94.006
0
LINE
8
BLACK
6
CONTINUOUS
10
115.42
20
-94.006
11
115.423
21
-93.9922
0
LINE
8
BLACK
6
CONTINUOUS
10
115.423
20
-93.9922
11
115.431
21
-93.9805
0
LINE
8
BLACK
6
CONTINUOUS
10
115.431
20
-93.9805
11
115.442
21
-93.9727
0
LINE
8
BLACK
6
CONTINUOUS
10
115.442
20
-93.9727
11
115.456
21
-93.97
0
LINE
8
BLACK
6
CONTINUOUS
10
115.456
20
-93.97
11
115.844
21
-93.97
0
LINE
8
BLACK
6
CONTINUOUS
10
115.844
20
-93.97
11
115.858
21
-93.9727
0
LINE
8
BLACK
6
CONTINUOUS
10
115.008
20
-93.9727
11
115.019
21
-93.9805
0
LINE
8
BLACK
6
CONTINUOUS
10
115.019
20
-93.9805
11
115.027
21
-93.9922
0
LINE
8
BLACK
6
CONTINUOUS
10
115.027
20
-93.9922
11
115.03
21
-94.006
0
LINE
8
BLACK
6
CONTINUOUS
10
115.03
20
-94.006
11
115.03
21
-94.294
0
LINE
8
BLACK
6
CONTINUOUS
10
115.03
20
-94.294
11
115.027
21
-94.3078
0
LINE
8
BLACK
6
CONTINUOUS
10
115.027
20
-94.3078
11
115.019
21
-94.3195
0
LINE
8
BLACK
6
CONTINUOUS
10
115.019
20
-94.3195
11
115.008
21
-94.3273
0
LINE
8
BLACK
6
CONTINUOUS
10
115.008
20
-94.3273
11
114.994
21
-94.33
0
LINE
8
BLACK
6
CONTINUOUS
10
114.994
20
-94.33
11
114.606
21
-94.33
0
LINE
8
BLACK
6
CONTINUOUS
10
114.606
20
-94.33
11
114.592
21
-94.3273
0
LINE
8
BLACK
6
CONTINUOUS
10
114.592
20
-94.3273
11
114.581
21
-94.3195
0
LINE
8
BLACK
6
CONTINUOUS
10
114.581
20
-94.3195
11
114.573
21
-94.3078
0
LINE
8
BLACK
6
CONTINUOUS
10
114.573
20
-94.3078
11
114.57
21
-94.294
0
LINE
8
BLACK
6
CONTINUOUS
10
114.57
20
-94.294
11
114.57
21
-94.006
0
LINE
8
BLACK
6
CONTINUOUS
10
114.57
20
-94.006
11
114.573
21
-93.9922
0
LINE
8
BLACK
6
CONTINUOUS
10
114.573
20
-93.9922
11
114.581
21
-93.9805
0
LINE
8
BLACK
6
CONTINUOUS
10
114.581
20
-93.9805
11
114.592
21
-93.9727
0
LINE
8
BLACK
6
CONTINUOUS
10
114.592
20
-93.9727
11
114.606
21
-93.97
0
LINE
8
BLACK
6
CONTINUOUS
10
114.606
20
-93.97
11
114.994
21
-93.97
0
LINE
8
BLACK
6
CONTINUOUS
10
114.994
20
-93.97
11
115.008
21
-93.9727
0
LINE
8
BLACK
6
CONTINUOUS
10
116.552
20
-93.9734
11
116.567
21
-93.9832
0
LINE
8
BLACK
6
CONTINUOUS
10
116.567
20
-93.9832
11
116.577
21
-93.9978
0
LINE
8
BLACK
6
CONTINUOUS
10
116.577
20
-93.9978
11
116.58
21
-94.015
0
LINE
8
BLACK
6
CONTINUOUS
10
116.58
20
-94.015
11
116.58
21
-94.285
0
LINE
8
BLACK
6
CONTINUOUS
10
116.58
20
-94.285
11
116.577
21
-94.3022
0
LINE
8
BLACK
6
CONTINUOUS
10
116.577
20
-94.3022
11
116.567
21
-94.3168
0
LINE
8
BLACK
6
CONTINUOUS
10
116.567
20
-94.3168
11
116.552
21
-94.3266
0
LINE
8
BLACK
6
CONTINUOUS
10
116.552
20
-94.3266
11
116.535
21
-94.33
0
LINE
8
BLACK
6
CONTINUOUS
10
116.535
20
-94.33
11
116.165
21
-94.33
0
LINE
8
BLACK
6
CONTINUOUS
10
116.165
20
-94.33
11
116.148
21
-94.3266
0
LINE
8
BLACK
6
CONTINUOUS
10
116.148
20
-94.3266
11
116.133
21
-94.3168
0
LINE
8
BLACK
6
CONTINUOUS
10
116.133
20
-94.3168
11
116.123
21
-94.3022
0
LINE
8
BLACK
6
CONTINUOUS
10
116.123
20
-94.3022
11
116.12
21
-94.285
0
LINE
8
BLACK
6
CONTINUOUS
10
116.12
20
-94.285
11
116.12
21
-94.015
0
LINE
8
BLACK
6
CONTINUOUS
10
116.12
20
-94.015
11
116.123
21
-93.9978
0
LINE
8
BLACK
6
CONTINUOUS
10
116.123
20
-93.9978
11
116.133
21
-93.9832
0
LINE
8
BLACK
6
CONTINUOUS
10
116.133
20
-93.9832
11
116.148
21
-93.9734
0
LINE
8
BLACK
6
CONTINUOUS
10
116.148
20
-93.9734
11
116.165
21
-93.97
0
LINE
8
BLACK
6
CONTINUOUS
10
116.165
20
-93.97
11
116.535
21
-93.97
0
LINE
8
BLACK
6
CONTINUOUS
10
116.535
20
-93.97
11
116.552
21
-93.9734
0
LINE
8
BLACK
6
CONTINUOUS
10
135.002
20
-93.2734
11
135.017
21
-93.2832
0
LINE
8
BLACK
6
CONTINUOUS
10
135.017
20
-93.2832
11
135.027
21
-93.2978
0
LINE
8
BLACK
6
CONTINUOUS
10
135.027
20
-93.2978
11
135.03
21
-93.315
0
LINE
8
BLACK
6
CONTINUOUS
10
135.03
20
-93.315
11
135.03
21
-93.585
0
LINE
8
BLACK
6
CONTINUOUS
10
135.03
20
-93.585
11
135.027
21
-93.6022
0
LINE
8
BLACK
6
CONTINUOUS
10
135.027
20
-93.6022
11
135.017
21
-93.6168
0
LINE
8
BLACK
6
CONTINUOUS
10
135.017
20
-93.6168
11
135.002
21
-93.6266
0
LINE
8
BLACK
6
CONTINUOUS
10
135.002
20
-93.6266
11
134.985
21
-93.63
0
LINE
8
BLACK
6
CONTINUOUS
10
134.985
20
-93.63
11
134.615
21
-93.63
0
LINE
8
BLACK
6
CONTINUOUS
10
134.615
20
-93.63
11
134.598
21
-93.6266
0
LINE
8
BLACK
6
CONTINUOUS
10
134.598
20
-93.6266
11
134.583
21
-93.6168
0
LINE
8
BLACK
6
CONTINUOUS
10
134.583
20
-93.6168
11
134.573
21
-93.6022
0
LINE
8
BLACK
6
CONTINUOUS
10
134.573
20
-93.6022
11
134.57
21
-93.585
0
LINE
8
BLACK
6
CONTINUOUS
10
134.57
20
-93.585
11
134.57
21
-93.315
0
LINE
8
BLACK
6
CONTINUOUS
10
134.57
20
-93.315
11
134.573
21
-93.2978
0
LINE
8
BLACK
6
CONTINUOUS
10
134.573
20
-93.2978
11
134.583
21
-93.2832
0
LINE
8
BLACK
6
CONTINUOUS
10
134.583
20
-93.2832
11
134.598
21
-93.2734
0
LINE
8
BLACK
6
CONTINUOUS
10
134.598
20
-93.2734
11
134.615
21
-93.27
0
LINE
8
BLACK
6
CONTINUOUS
10
134.615
20
-93.27
11
134.985
21
-93.27
0
LINE
8
BLACK
6
CONTINUOUS
10
134.985
20
-93.27
11
135.002
21
-93.2734
0
LINE
8
BLACK
6
CONTINUOUS
10
123.552
20
-92.9734
11
123.567
21
-92.9832
0
LINE
8
BLACK
6
CONTINUOUS
10
123.567
20
-92.9832
11
123.577
21
-92.9978
0
LINE
8
BLACK
6
CONTINUOUS
10
123.577
20
-92.9978
11
123.58
21
-93.015
0
LINE
8
BLACK
6
CONTINUOUS
10
123.58
20
-93.015
11
123.58
21
-93.385
0
LINE
8
BLACK
6
CONTINUOUS
10
123.58
20
-93.385
11
123.577
21
-93.4022
0
LINE
8
BLACK
6
CONTINUOUS
10
123.577
20
-93.4022
11
123.567
21
-93.4168
0
LINE
8
BLACK
6
CONTINUOUS
10
123.567
20
-93.4168
11
123.552
21
-93.4266
0
LINE
8
BLACK
6
CONTINUOUS
10
123.552
20
-93.4266
11
123.535
21
-93.43
0
LINE
8
BLACK
6
CONTINUOUS
10
123.535
20
-93.43
11
123.265
21
-93.43
0
LINE
8
BLACK
6
CONTINUOUS
10
123.265
20
-93.43
11
123.248
21
-93.4266
0
LINE
8
BLACK
6
CONTINUOUS
10
123.248
20
-93.4266
11
123.233
21
-93.4168
0
LINE
8
BLACK
6
CONTINUOUS
10
123.233
20
-93.4168
11
123.223
21
-93.4022
0
LINE
8
BLACK
6
CONTINUOUS
10
123.223
20
-93.4022
11
123.22
21
-93.385
0
LINE
8
BLACK
6
CONTINUOUS
10
123.22
20
-93.385
11
123.22
21
-93.015
0
LINE
8
BLACK
6
CONTINUOUS
10
123.22
20
-93.015
11
123.223
21
-92.9978
0
LINE
8
BLACK
6
CONTINUOUS
10
123.223
20
-92.9978
11
123.233
21
-92.9832
0
LINE
8
BLACK
6
CONTINUOUS
10
123.233
20
-92.9832
11
123.248
21
-92.9734
0
LINE
8
BLACK
6
CONTINUOUS
10
123.248
20
-92.9734
11
123.265
21
-92.97
0
LINE
8
BLACK
6
CONTINUOUS
10
123.265
20
-92.97
11
123.535
21
-92.97
0
LINE
8
BLACK
6
CONTINUOUS
10
123.535
20
-92.97
11
123.552
21
-92.9734
0
LINE
8
BLACK
6
CONTINUOUS
10
122.652
20
-92.9734
11
122.667
21
-92.9832
0
LINE
8
BLACK
6
CONTINUOUS
10
122.667
20
-92.9832
11
122.677
21
-92.9978
0
LINE
8
BLACK
6
CONTINUOUS
10
122.677
20
-92.9978
11
122.68
21
-93.015
0
LINE
8
BLACK
6
CONTINUOUS
10
122.68
20
-93.015
11
122.68
21
-93.385
0
LINE
8
BLACK
6
CONTINUOUS
10
122.68
20
-93.385
11
122.677
21
-93.4022
0
LINE
8
BLACK
6
CONTINUOUS
10
122.677
20
-93.4022
11
122.667
21
-93.4168
0
LINE
8
BLACK
6
CONTINUOUS
10
122.667
20
-93.4168
11
122.652
21
-93.4266
0
LINE
8
BLACK
6
CONTINUOUS
10
122.652
20
-93.4266
11
122.635
21
-93.43
0
LINE
8
BLACK
6
CONTINUOUS
10
122.635
20
-93.43
11
122.365
21
-93.43
0
LINE
8
BLACK
6
CONTINUOUS
10
122.365
20
-93.43
11
122.348
21
-93.4266
0
LINE
8
BLACK
6
CONTINUOUS
10
122.348
20
-93.4266
11
122.333
21
-93.4168
0
LINE
8
BLACK
6
CONTINUOUS
10
122.333
20
-93.4168
11
122.323
21
-93.4022
0
LINE
8
BLACK
6
CONTINUOUS
10
122.323
20
-93.4022
11
122.32
21
-93.385
0
LINE
8
BLACK
6
CONTINUOUS
10
122.32
20
-93.385
11
122.32
21
-93.015
0
LINE
8
BLACK
6
CONTINUOUS
10
122.32
20
-93.015
11
122.323
21
-92.9978
0
LINE
8
BLACK
6
CONTINUOUS
10
122.323
20
-92.9978
11
122.333
21
-92.9832
0
LINE
8
BLACK
6
CONTINUOUS
10
122.333
20
-92.9832
11
122.348
21
-92.9734
0
LINE
8
BLACK
6
CONTINUOUS
10
122.348
20
-92.9734
11
122.365
21
-92.97
0
LINE
8
BLACK
6
CONTINUOUS
10
122.365
20
-92.97
11
122.635
21
-92.97
0
LINE
8
BLACK
6
CONTINUOUS
10
122.635
20
-92.97
11
122.652
21
-92.9734
0
LINE
8
BLACK
6
CONTINUOUS
10
131.102
20
-92.7734
11
131.117
21
-92.7832
0
LINE
8
BLACK
6
CONTINUOUS
10
131.117
20
-92.7832
11
131.127
21
-92.7978
0
LINE
8
BLACK
6
CONTINUOUS
10
131.127
20
-92.7978
11
131.13
21
-92.815
0
LINE
8
BLACK
6
CONTINUOUS
10
131.13
20
-92.815
11
131.13
21
-93.085
0
LINE
8
BLACK
6
CONTINUOUS
10
131.13
20
-93.085
11
131.127
21
-93.1022
0
LINE
8
BLACK
6
CONTINUOUS
10
131.127
20
-93.1022
11
131.117
21
-93.1168
0
LINE
8
BLACK
6
CONTINUOUS
10
131.117
20
-93.1168
11
131.102
21
-93.1266
0
LINE
8
BLACK
6
CONTINUOUS
10
131.102
20
-93.1266
11
131.085
21
-93.13
0
LINE
8
BLACK
6
CONTINUOUS
10
131.085
20
-93.13
11
130.715
21
-93.13
0
LINE
8
BLACK
6
CONTINUOUS
10
130.715
20
-93.13
11
130.698
21
-93.1266
0
LINE
8
BLACK
6
CONTINUOUS
10
130.698
20
-93.1266
11
130.683
21
-93.1168
0
LINE
8
BLACK
6
CONTINUOUS
10
130.683
20
-93.1168
11
130.673
21
-93.1022
0
LINE
8
BLACK
6
CONTINUOUS
10
130.673
20
-93.1022
11
130.67
21
-93.085
0
LINE
8
BLACK
6
CONTINUOUS
10
130.67
20
-93.085
11
130.67
21
-92.815
0
LINE
8
BLACK
6
CONTINUOUS
10
130.67
20
-92.815
11
130.673
21
-92.7978
0
LINE
8
BLACK
6
CONTINUOUS
10
130.673
20
-92.7978
11
130.683
21
-92.7832
0
LINE
8
BLACK
6
CONTINUOUS
10
130.683
20
-92.7832
11
130.698
21
-92.7734
0
LINE
8
BLACK
6
CONTINUOUS
10
130.698
20
-92.7734
11
130.715
21
-92.77
0
LINE
8
BLACK
6
CONTINUOUS
10
130.715
20
-92.77
11
131.085
21
-92.77
0
LINE
8
BLACK
6
CONTINUOUS
10
131.085
20
-92.77
11
131.102
21
-92.7734
0
LINE
8
BLACK
6
CONTINUOUS
10
107.666
20
-91.9042
11
107.684
21
-91.9161
0
LINE
8
BLACK
6
CONTINUOUS
10
107.684
20
-91.9161
11
107.696
21
-91.934
0
LINE
8
BLACK
6
CONTINUOUS
10
107.696
20
-91.934
11
107.7
21
-91.955
0
LINE
8
BLACK
6
CONTINUOUS
10
107.7
20
-91.955
11
107.7
21
-92.945
0
LINE
8
BLACK
6
CONTINUOUS
10
107.7
20
-92.945
11
107.696
21
-92.966
0
LINE
8
BLACK
6
CONTINUOUS
10
107.696
20
-92.966
11
107.684
21
-92.9839
0
LINE
8
BLACK
6
CONTINUOUS
10
107.684
20
-92.9839
11
107.666
21
-92.9958
0
LINE
8
BLACK
6
CONTINUOUS
10
107.666
20
-92.9958
11
107.645
21
-93
0
LINE
8
BLACK
6
CONTINUOUS
10
107.645
20
-93
11
107.205
21
-93
0
LINE
8
BLACK
6
CONTINUOUS
10
107.205
20
-93
11
107.184
21
-92.9958
0
LINE
8
BLACK
6
CONTINUOUS
10
107.184
20
-92.9958
11
107.166
21
-92.9839
0
LINE
8
BLACK
6
CONTINUOUS
10
107.166
20
-92.9839
11
107.154
21
-92.966
0
LINE
8
BLACK
6
CONTINUOUS
10
107.154
20
-92.966
11
107.15
21
-92.945
0
LINE
8
BLACK
6
CONTINUOUS
10
107.15
20
-92.945
11
107.15
21
-91.955
0
LINE
8
BLACK
6
CONTINUOUS
10
107.15
20
-91.955
11
107.154
21
-91.934
0
LINE
8
BLACK
6
CONTINUOUS
10
107.154
20
-91.934
11
107.166
21
-91.9161
0
LINE
8
BLACK
6
CONTINUOUS
10
107.166
20
-91.9161
11
107.184
21
-91.9042
0
LINE
8
BLACK
6
CONTINUOUS
10
107.184
20
-91.9042
11
107.205
21
-91.9
0
LINE
8
BLACK
6
CONTINUOUS
10
107.205
20
-91.9
11
107.645
21
-91.9
0
LINE
8
BLACK
6
CONTINUOUS
10
107.645
20
-91.9
11
107.666
21
-91.9042
0
LINE
8
BLACK
6
CONTINUOUS
10
106.016
20
-91.9042
11
106.034
21
-91.9161
0
LINE
8
BLACK
6
CONTINUOUS
10
106.034
20
-91.9161
11
106.046
21
-91.934
0
LINE
8
BLACK
6
CONTINUOUS
10
106.046
20
-91.934
11
106.05
21
-91.955
0
LINE
8
BLACK
6
CONTINUOUS
10
106.05
20
-91.955
11
106.05
21
-92.945
0
LINE
8
BLACK
6
CONTINUOUS
10
106.05
20
-92.945
11
106.046
21
-92.966
0
LINE
8
BLACK
6
CONTINUOUS
10
106.046
20
-92.966
11
106.034
21
-92.9839
0
LINE
8
BLACK
6
CONTINUOUS
10
106.034
20
-92.9839
11
106.016
21
-92.9958
0
LINE
8
BLACK
6
CONTINUOUS
10
106.016
20
-92.9958
11
105.995
21
-93
0
LINE
8
BLACK
6
CONTINUOUS
10
105.995
20
-93
11
105.555
21
-93
0
LINE
8
BLACK
6
CONTINUOUS
10
105.555
20
-93
11
105.534
21
-92.9958
0
LINE
8
BLACK
6
CONTINUOUS
10
105.534
20
-92.9958
11
105.516
21
-92.9839
0
LINE
8
BLACK
6
CONTINUOUS
10
105.516
20
-92.9839
11
105.504
21
-92.966
0
LINE
8
BLACK
6
CONTINUOUS
10
105.504
20
-92.966
11
105.5
21
-92.945
0
LINE
8
BLACK
6
CONTINUOUS
10
105.5
20
-92.945
11
105.5
21
-91.955
0
LINE
8
BLACK
6
CONTINUOUS
10
105.5
20
-91.955
11
105.504
21
-91.934
0
LINE
8
BLACK
6
CONTINUOUS
10
105.504
20
-91.934
11
105.516
21
-91.9161
0
LINE
8
BLACK
6
CONTINUOUS
10
105.516
20
-91.9161
11
105.534
21
-91.9042
0
LINE
8
BLACK
6
CONTINUOUS
10
105.534
20
-91.9042
11
105.555
21
-91.9
0
LINE
8
BLACK
6
CONTINUOUS
10
105.555
20
-91.9
11
105.995
21
-91.9
0
LINE
8
BLACK
6
CONTINUOUS
10
105.995
20
-91.9
11
106.016
21
-91.9042
0
LINE
8
BLACK
6
CONTINUOUS
10
135.002
20
-92.3734
11
135.017
21
-92.3832
0
LINE
8
BLACK
6
CONTINUOUS
10
135.017
20
-92.3832
11
135.027
21
-92.3978
0
LINE
8
BLACK
6
CONTINUOUS
10
135.027
20
-92.3978
11
135.03
21
-92.415
0
LINE
8
BLACK
6
CONTINUOUS
10
135.03
20
-92.415
11
135.03
21
-92.685
0
LINE
8
BLACK
6
CONTINUOUS
10
135.03
20
-92.685
11
135.027
21
-92.7022
0
LINE
8
BLACK
6
CONTINUOUS
10
135.027
20
-92.7022
11
135.017
21
-92.7168
0
LINE
8
BLACK
6
CONTINUOUS
10
135.017
20
-92.7168
11
135.002
21
-92.7266
0
LINE
8
BLACK
6
CONTINUOUS
10
135.002
20
-92.7266
11
134.985
21
-92.73
0
LINE
8
BLACK
6
CONTINUOUS
10
134.985
20
-92.73
11
134.615
21
-92.73
0
LINE
8
BLACK
6
CONTINUOUS
10
134.615
20
-92.73
11
134.598
21
-92.7266
0
LINE
8
BLACK
6
CONTINUOUS
10
134.598
20
-92.7266
11
134.583
21
-92.7168
0
LINE
8
BLACK
6
CONTINUOUS
10
134.583
20
-92.7168
11
134.573
21
-92.7022
0
LINE
8
BLACK
6
CONTINUOUS
10
134.573
20
-92.7022
11
134.57
21
-92.685
0
LINE
8
BLACK
6
CONTINUOUS
10
134.57
20
-92.685
11
134.57
21
-92.415
0
LINE
8
BLACK
6
CONTINUOUS
10
134.57
20
-92.415
11
134.573
21
-92.3978
0
LINE
8
BLACK
6
CONTINUOUS
10
134.573
20
-92.3978
11
134.583
21
-92.3832
0
LINE
8
BLACK
6
CONTINUOUS
10
134.583
20
-92.3832
11
134.598
21
-92.3734
0
LINE
8
BLACK
6
CONTINUOUS
10
134.598
20
-92.3734
11
134.615
21
-92.37
0
LINE
8
BLACK
6
CONTINUOUS
10
134.615
20
-92.37
11
134.985
21
-92.37
0
LINE
8
BLACK
6
CONTINUOUS
10
134.985
20
-92.37
11
135.002
21
-92.3734
0
LINE
8
BLACK
6
CONTINUOUS
10
120.602
20
-91.8734
11
120.617
21
-91.8832
0
LINE
8
BLACK
6
CONTINUOUS
10
120.617
20
-91.8832
11
120.627
21
-91.8978
0
LINE
8
BLACK
6
CONTINUOUS
10
120.627
20
-91.8978
11
120.63
21
-91.915
0
LINE
8
BLACK
6
CONTINUOUS
10
120.63
20
-91.915
11
120.63
21
-92.285
0
LINE
8
BLACK
6
CONTINUOUS
10
120.63
20
-92.285
11
120.627
21
-92.3022
0
LINE
8
BLACK
6
CONTINUOUS
10
120.627
20
-92.3022
11
120.617
21
-92.3168
0
LINE
8
BLACK
6
CONTINUOUS
10
120.617
20
-92.3168
11
120.602
21
-92.3266
0
LINE
8
BLACK
6
CONTINUOUS
10
120.602
20
-92.3266
11
120.585
21
-92.33
0
LINE
8
BLACK
6
CONTINUOUS
10
120.585
20
-92.33
11
120.315
21
-92.33
0
LINE
8
BLACK
6
CONTINUOUS
10
120.315
20
-92.33
11
120.298
21
-92.3266
0
LINE
8
BLACK
6
CONTINUOUS
10
120.298
20
-92.3266
11
120.283
21
-92.3168
0
LINE
8
BLACK
6
CONTINUOUS
10
120.283
20
-92.3168
11
120.273
21
-92.3022
0
LINE
8
BLACK
6
CONTINUOUS
10
120.273
20
-92.3022
11
120.27
21
-92.285
0
LINE
8
BLACK
6
CONTINUOUS
10
120.27
20
-92.285
11
120.27
21
-91.915
0
LINE
8
BLACK
6
CONTINUOUS
10
120.27
20
-91.915
11
120.273
21
-91.8978
0
LINE
8
BLACK
6
CONTINUOUS
10
120.273
20
-91.8978
11
120.283
21
-91.8832
0
LINE
8
BLACK
6
CONTINUOUS
10
120.283
20
-91.8832
11
120.298
21
-91.8734
0
LINE
8
BLACK
6
CONTINUOUS
10
120.298
20
-91.8734
11
120.315
21
-91.87
0
LINE
8
BLACK
6
CONTINUOUS
10
120.315
20
-91.87
11
120.585
21
-91.87
0
LINE
8
BLACK
6
CONTINUOUS
10
120.585
20
-91.87
11
120.602
21
-91.8734
0
LINE
8
BLACK
6
CONTINUOUS
10
119.702
20
-91.8734
11
119.717
21
-91.8832
0
LINE
8
BLACK
6
CONTINUOUS
10
119.717
20
-91.8832
11
119.727
21
-91.8978
0
LINE
8
BLACK
6
CONTINUOUS
10
119.727
20
-91.8978
11
119.73
21
-91.915
0
LINE
8
BLACK
6
CONTINUOUS
10
119.73
20
-91.915
11
119.73
21
-92.285
0
LINE
8
BLACK
6
CONTINUOUS
10
119.73
20
-92.285
11
119.727
21
-92.3022
0
LINE
8
BLACK
6
CONTINUOUS
10
119.727
20
-92.3022
11
119.717
21
-92.3168
0
LINE
8
BLACK
6
CONTINUOUS
10
119.717
20
-92.3168
11
119.702
21
-92.3266
0
LINE
8
BLACK
6
CONTINUOUS
10
119.702
20
-92.3266
11
119.685
21
-92.33
0
LINE
8
BLACK
6
CONTINUOUS
10
119.685
20
-92.33
11
119.415
21
-92.33
0
LINE
8
BLACK
6
CONTINUOUS
10
119.415
20
-92.33
11
119.398
21
-92.3266
0
LINE
8
BLACK
6
CONTINUOUS
10
119.398
20
-92.3266
11
119.383
21
-92.3168
0
LINE
8
BLACK
6
CONTINUOUS
10
119.383
20
-92.3168
11
119.373
21
-92.3022
0
LINE
8
BLACK
6
CONTINUOUS
10
119.373
20
-92.3022
11
119.37
21
-92.285
0
LINE
8
BLACK
6
CONTINUOUS
10
119.37
20
-92.285
11
119.37
21
-91.915
0
LINE
8
BLACK
6
CONTINUOUS
10
119.37
20
-91.915
11
119.373
21
-91.8978
0
LINE
8
BLACK
6
CONTINUOUS
10
119.373
20
-91.8978
11
119.383
21
-91.8832
0
LINE
8
BLACK
6
CONTINUOUS
10
119.383
20
-91.8832
11
119.398
21
-91.8734
0
LINE
8
BLACK
6
CONTINUOUS
10
119.398
20
-91.8734
11
119.415
21
-91.87
0
LINE
8
BLACK
6
CONTINUOUS
10
119.415
20
-91.87
11
119.685
21
-91.87
0
LINE
8
BLACK
6
CONTINUOUS
10
119.685
20
-91.87
11
119.702
21
-91.8734
0
LINE
8
BLACK
6
CONTINUOUS
10
131.102
20
-91.8734
11
131.117
21
-91.8832
0
LINE
8
BLACK
6
CONTINUOUS
10
131.117
20
-91.8832
11
131.127
21
-91.8978
0
LINE
8
BLACK
6
CONTINUOUS
10
131.127
20
-91.8978
11
131.13
21
-91.915
0
LINE
8
BLACK
6
CONTINUOUS
10
131.13
20
-91.915
11
131.13
21
-92.185
0
LINE
8
BLACK
6
CONTINUOUS
10
131.13
20
-92.185
11
131.127
21
-92.2022
0
LINE
8
BLACK
6
CONTINUOUS
10
131.127
20
-92.2022
11
131.117
21
-92.2168
0
LINE
8
BLACK
6
CONTINUOUS
10
131.117
20
-92.2168
11
131.102
21
-92.2266
0
LINE
8
BLACK
6
CONTINUOUS
10
131.102
20
-92.2266
11
131.085
21
-92.23
0
LINE
8
BLACK
6
CONTINUOUS
10
131.085
20
-92.23
11
130.715
21
-92.23
0
LINE
8
BLACK
6
CONTINUOUS
10
130.715
20
-92.23
11
130.698
21
-92.2266
0
LINE
8
BLACK
6
CONTINUOUS
10
130.698
20
-92.2266
11
130.683
21
-92.2168
0
LINE
8
BLACK
6
CONTINUOUS
10
130.683
20
-92.2168
11
130.673
21
-92.2022
0
LINE
8
BLACK
6
CONTINUOUS
10
130.673
20
-92.2022
11
130.67
21
-92.185
0
LINE
8
BLACK
6
CONTINUOUS
10
130.67
20
-92.185
11
130.67
21
-91.915
0
LINE
8
BLACK
6
CONTINUOUS
10
130.67
20
-91.915
11
130.673
21
-91.8978
0
LINE
8
BLACK
6
CONTINUOUS
10
130.673
20
-91.8978
11
130.683
21
-91.8832
0
LINE
8
BLACK
6
CONTINUOUS
10
130.683
20
-91.8832
11
130.698
21
-91.8734
0
LINE
8
BLACK
6
CONTINUOUS
10
130.698
20
-91.8734
11
130.715
21
-91.87
0
LINE
8
BLACK
6
CONTINUOUS
10
130.715
20
-91.87
11
131.085
21
-91.87
0
LINE
8
BLACK
6
CONTINUOUS
10
131.085
20
-91.87
11
131.102
21
-91.8734
0
LINE
8
BLACK
6
CONTINUOUS
10
110.266
20
-89.5542
11
110.284
21
-89.5661
0
LINE
8
BLACK
6
CONTINUOUS
10
110.284
20
-89.5661
11
110.296
21
-89.584
0
LINE
8
BLACK
6
CONTINUOUS
10
110.296
20
-89.584
11
110.3
21
-89.605
0
LINE
8
BLACK
6
CONTINUOUS
10
110.3
20
-89.605
11
110.3
21
-90.045
0
LINE
8
BLACK
6
CONTINUOUS
10
110.3
20
-90.045
11
110.296
21
-90.066
0
LINE
8
BLACK
6
CONTINUOUS
10
110.296
20
-90.066
11
110.284
21
-90.0839
0
LINE
8
BLACK
6
CONTINUOUS
10
110.284
20
-90.0839
11
110.266
21
-90.0958
0
LINE
8
BLACK
6
CONTINUOUS
10
110.266
20
-90.0958
11
110.245
21
-90.1
0
LINE
8
BLACK
6
CONTINUOUS
10
110.245
20
-90.1
11
109.255
21
-90.1
0
LINE
8
BLACK
6
CONTINUOUS
10
109.255
20
-90.1
11
109.234
21
-90.0958
0
LINE
8
BLACK
6
CONTINUOUS
10
109.234
20
-90.0958
11
109.216
21
-90.0839
0
LINE
8
BLACK
6
CONTINUOUS
10
109.216
20
-90.0839
11
109.204
21
-90.066
0
LINE
8
BLACK
6
CONTINUOUS
10
109.204
20
-90.066
11
109.2
21
-90.045
0
LINE
8
BLACK
6
CONTINUOUS
10
109.2
20
-90.045
11
109.2
21
-89.605
0
LINE
8
BLACK
6
CONTINUOUS
10
109.2
20
-89.605
11
109.204
21
-89.584
0
LINE
8
BLACK
6
CONTINUOUS
10
109.204
20
-89.584
11
109.216
21
-89.5661
0
LINE
8
BLACK
6
CONTINUOUS
10
109.216
20
-89.5661
11
109.234
21
-89.5542
0
LINE
8
BLACK
6
CONTINUOUS
10
109.234
20
-89.5542
11
109.255
21
-89.55
0
LINE
8
BLACK
6
CONTINUOUS
10
109.255
20
-89.55
11
110.245
21
-89.55
0
LINE
8
BLACK
6
CONTINUOUS
10
110.245
20
-89.55
11
110.266
21
-89.5542
0
LINE
8
BLACK
6
CONTINUOUS
10
134.702
20
-89.2734
11
134.717
21
-89.2832
0
LINE
8
BLACK
6
CONTINUOUS
10
134.717
20
-89.2832
11
134.727
21
-89.2978
0
LINE
8
BLACK
6
CONTINUOUS
10
134.727
20
-89.2978
11
134.73
21
-89.315
0
LINE
8
BLACK
6
CONTINUOUS
10
134.73
20
-89.315
11
134.73
21
-89.585
0
LINE
8
BLACK
6
CONTINUOUS
10
134.73
20
-89.585
11
134.727
21
-89.6022
0
LINE
8
BLACK
6
CONTINUOUS
10
134.727
20
-89.6022
11
134.717
21
-89.6168
0
LINE
8
BLACK
6
CONTINUOUS
10
134.717
20
-89.6168
11
134.702
21
-89.6266
0
LINE
8
BLACK
6
CONTINUOUS
10
134.702
20
-89.6266
11
134.685
21
-89.63
0
LINE
8
BLACK
6
CONTINUOUS
10
134.685
20
-89.63
11
134.315
21
-89.63
0
LINE
8
BLACK
6
CONTINUOUS
10
134.315
20
-89.63
11
134.298
21
-89.6266
0
LINE
8
BLACK
6
CONTINUOUS
10
134.298
20
-89.6266
11
134.283
21
-89.6168
0
LINE
8
BLACK
6
CONTINUOUS
10
134.283
20
-89.6168
11
134.273
21
-89.6022
0
LINE
8
BLACK
6
CONTINUOUS
10
134.273
20
-89.6022
11
134.27
21
-89.585
0
LINE
8
BLACK
6
CONTINUOUS
10
134.27
20
-89.585
11
134.27
21
-89.315
0
LINE
8
BLACK
6
CONTINUOUS
10
134.27
20
-89.315
11
134.273
21
-89.2978
0
LINE
8
BLACK
6
CONTINUOUS
10
134.273
20
-89.2978
11
134.283
21
-89.2832
0
LINE
8
BLACK
6
CONTINUOUS
10
134.283
20
-89.2832
11
134.298
21
-89.2734
0
LINE
8
BLACK
6
CONTINUOUS
10
134.298
20
-89.2734
11
134.315
21
-89.27
0
LINE
8
BLACK
6
CONTINUOUS
10
134.315
20
-89.27
11
134.685
21
-89.27
0
LINE
8
BLACK
6
CONTINUOUS
10
134.685
20
-89.27
11
134.702
21
-89.2734
0
LINE
8
BLACK
6
CONTINUOUS
10
134.702
20
-88.3734
11
134.717
21
-88.3832
0
LINE
8
BLACK
6
CONTINUOUS
10
134.717
20
-88.3832
11
134.727
21
-88.3978
0
LINE
8
BLACK
6
CONTINUOUS
10
134.727
20
-88.3978
11
134.73
21
-88.415
0
LINE
8
BLACK
6
CONTINUOUS
10
134.73
20
-88.415
11
134.73
21
-88.685
0
LINE
8
BLACK
6
CONTINUOUS
10
134.73
20
-88.685
11
134.727
21
-88.7022
0
LINE
8
BLACK
6
CONTINUOUS
10
134.727
20
-88.7022
11
134.717
21
-88.7168
0
LINE
8
BLACK
6
CONTINUOUS
10
134.717
20
-88.7168
11
134.702
21
-88.7266
0
LINE
8
BLACK
6
CONTINUOUS
10
134.702
20
-88.7266
11
134.685
21
-88.73
0
LINE
8
BLACK
6
CONTINUOUS
10
134.685
20
-88.73
11
134.315
21
-88.73
0
LINE
8
BLACK
6
CONTINUOUS
10
134.315
20
-88.73
11
134.298
21
-88.7266
0
LINE
8
BLACK
6
CONTINUOUS
10
134.298
20
-88.7266
11
134.283
21
-88.7168
0
LINE
8
BLACK
6
CONTINUOUS
10
134.283
20
-88.7168
11
134.273
21
-88.7022
0
LINE
8
BLACK
6
CONTINUOUS
10
134.273
20
-88.7022
11
134.27
21
-88.685
0
LINE
8
BLACK
6
CONTINUOUS
10
134.27
20
-88.685
11
134.27
21
-88.415
0
LINE
8
BLACK
6
CONTINUOUS
10
134.27
20
-88.415
11
134.273
21
-88.3978
0
LINE
8
BLACK
6
CONTINUOUS
10
134.273
20
-88.3978
11
134.283
21
-88.3832
0
LINE
8
BLACK
6
CONTINUOUS
10
134.283
20
-88.3832
11
134.298
21
-88.3734
0
LINE
8
BLACK
6
CONTINUOUS
10
134.298
20
-88.3734
11
134.315
21
-88.37
0
LINE
8
BLACK
6
CONTINUOUS
10
134.315
20
-88.37
11
134.685
21
-88.37
0
LINE
8
BLACK
6
CONTINUOUS
10
134.685
20
-88.37
11
134.702
21
-88.3734
0
LINE
8
BLACK
6
CONTINUOUS
10
118.758
20
-88.1727
11
118.769
21
-88.1805
0
LINE
8
BLACK
6
CONTINUOUS
10
118.769
20
-88.1805
11
118.777
21
-88.1922
0
LINE
8
BLACK
6
CONTINUOUS
10
118.777
20
-88.1922
11
118.78
21
-88.206
0
LINE
8
BLACK
6
CONTINUOUS
10
118.78
20
-88.206
11
118.78
21
-88.494
0
LINE
8
BLACK
6
CONTINUOUS
10
118.78
20
-88.494
11
118.777
21
-88.5078
0
LINE
8
BLACK
6
CONTINUOUS
10
118.777
20
-88.5078
11
118.769
21
-88.5195
0
LINE
8
BLACK
6
CONTINUOUS
10
118.769
20
-88.5195
11
118.758
21
-88.5273
0
LINE
8
BLACK
6
CONTINUOUS
10
118.758
20
-88.5273
11
118.744
21
-88.53
0
LINE
8
BLACK
6
CONTINUOUS
10
118.744
20
-88.53
11
118.356
21
-88.53
0
LINE
8
BLACK
6
CONTINUOUS
10
118.356
20
-88.53
11
118.342
21
-88.5273
0
LINE
8
BLACK
6
CONTINUOUS
10
118.342
20
-88.5273
11
118.331
21
-88.5195
0
LINE
8
BLACK
6
CONTINUOUS
10
118.331
20
-88.5195
11
118.323
21
-88.5078
0
LINE
8
BLACK
6
CONTINUOUS
10
118.323
20
-88.5078
11
118.32
21
-88.494
0
LINE
8
BLACK
6
CONTINUOUS
10
118.32
20
-88.494
11
118.32
21
-88.206
0
LINE
8
BLACK
6
CONTINUOUS
10
118.32
20
-88.206
11
118.323
21
-88.1922
0
LINE
8
BLACK
6
CONTINUOUS
10
118.323
20
-88.1922
11
118.331
21
-88.1805
0
LINE
8
BLACK
6
CONTINUOUS
10
118.331
20
-88.1805
11
118.342
21
-88.1727
0
LINE
8
BLACK
6
CONTINUOUS
10
118.342
20
-88.1727
11
118.356
21
-88.17
0
LINE
8
BLACK
6
CONTINUOUS
10
118.356
20
-88.17
11
118.744
21
-88.17
0
LINE
8
BLACK
6
CONTINUOUS
10
118.744
20
-88.17
11
118.758
21
-88.1727
0
LINE
8
BLACK
6
CONTINUOUS
10
110.266
20
-87.9042
11
110.284
21
-87.9161
0
LINE
8
BLACK
6
CONTINUOUS
10
110.284
20
-87.9161
11
110.296
21
-87.934
0
LINE
8
BLACK
6
CONTINUOUS
10
110.296
20
-87.934
11
110.3
21
-87.955
0
LINE
8
BLACK
6
CONTINUOUS
10
110.3
20
-87.955
11
110.3
21
-88.395
0
LINE
8
BLACK
6
CONTINUOUS
10
110.3
20
-88.395
11
110.296
21
-88.416
0
LINE
8
BLACK
6
CONTINUOUS
10
110.296
20
-88.416
11
110.284
21
-88.4339
0
LINE
8
BLACK
6
CONTINUOUS
10
110.284
20
-88.4339
11
110.266
21
-88.4458
0
LINE
8
BLACK
6
CONTINUOUS
10
110.266
20
-88.4458
11
110.245
21
-88.45
0
LINE
8
BLACK
6
CONTINUOUS
10
110.245
20
-88.45
11
109.255
21
-88.45
0
LINE
8
BLACK
6
CONTINUOUS
10
109.255
20
-88.45
11
109.234
21
-88.4458
0
LINE
8
BLACK
6
CONTINUOUS
10
109.234
20
-88.4458
11
109.216
21
-88.4339
0
LINE
8
BLACK
6
CONTINUOUS
10
109.216
20
-88.4339
11
109.204
21
-88.416
0
LINE
8
BLACK
6
CONTINUOUS
10
109.204
20
-88.416
11
109.2
21
-88.395
0
LINE
8
BLACK
6
CONTINUOUS
10
109.2
20
-88.395
11
109.2
21
-87.955
0
LINE
8
BLACK
6
CONTINUOUS
10
109.2
20
-87.955
11
109.204
21
-87.934
0
LINE
8
BLACK
6
CONTINUOUS
10
109.204
20
-87.934
11
109.216
21
-87.9161
0
LINE
8
BLACK
6
CONTINUOUS
10
109.216
20
-87.9161
11
109.234
21
-87.9042
0
LINE
8
BLACK
6
CONTINUOUS
10
109.234
20
-87.9042
11
109.255
21
-87.9
0
LINE
8
BLACK
6
CONTINUOUS
10
109.255
20
-87.9
11
110.245
21
-87.9
0
LINE
8
BLACK
6
CONTINUOUS
10
110.245
20
-87.9
11
110.266
21
-87.9042
0
LINE
8
BLACK
6
CONTINUOUS
10
118.758
20
-87.2727
11
118.769
21
-87.2805
0
LINE
8
BLACK
6
CONTINUOUS
10
118.769
20
-87.2805
11
118.777
21
-87.2922
0
LINE
8
BLACK
6
CONTINUOUS
10
118.777
20
-87.2922
11
118.78
21
-87.306
0
LINE
8
BLACK
6
CONTINUOUS
10
118.78
20
-87.306
11
118.78
21
-87.594
0
LINE
8
BLACK
6
CONTINUOUS
10
118.78
20
-87.594
11
118.777
21
-87.6078
0
LINE
8
BLACK
6
CONTINUOUS
10
118.777
20
-87.6078
11
118.769
21
-87.6195
0
LINE
8
BLACK
6
CONTINUOUS
10
118.769
20
-87.6195
11
118.758
21
-87.6273
0
LINE
8
BLACK
6
CONTINUOUS
10
118.758
20
-87.6273
11
118.744
21
-87.63
0
LINE
8
BLACK
6
CONTINUOUS
10
118.744
20
-87.63
11
118.356
21
-87.63
0
LINE
8
BLACK
6
CONTINUOUS
10
118.356
20
-87.63
11
118.342
21
-87.6273
0
LINE
8
BLACK
6
CONTINUOUS
10
118.342
20
-87.6273
11
118.331
21
-87.6195
0
LINE
8
BLACK
6
CONTINUOUS
10
118.331
20
-87.6195
11
118.323
21
-87.6078
0
LINE
8
BLACK
6
CONTINUOUS
10
118.323
20
-87.6078
11
118.32
21
-87.594
0
LINE
8
BLACK
6
CONTINUOUS
10
118.32
20
-87.594
11
118.32
21
-87.306
0
LINE
8
BLACK
6
CONTINUOUS
10
118.32
20
-87.306
11
118.323
21
-87.2922
0
LINE
8
BLACK
6
CONTINUOUS
10
118.323
20
-87.2922
11
118.331
21
-87.2805
0
LINE
8
BLACK
6
CONTINUOUS
10
118.331
20
-87.2805
11
118.342
21
-87.2727
0
LINE
8
BLACK
6
CONTINUOUS
10
118.342
20
-87.2727
11
118.356
21
-87.27
0
LINE
8
BLACK
6
CONTINUOUS
10
118.356
20
-87.27
11
118.744
21
-87.27
0
LINE
8
BLACK
6
CONTINUOUS
10
118.744
20
-87.27
11
118.758
21
-87.2727
0
LINE
8
BLACK
6
CONTINUOUS
10
118.758
20
-86.0227
11
118.769
21
-86.0305
0
LINE
8
BLACK
6
CONTINUOUS
10
118.769
20
-86.0305
11
118.777
21
-86.0422
0
LINE
8
BLACK
6
CONTINUOUS
10
118.777
20
-86.0422
11
118.78
21
-86.056
0
LINE
8
BLACK
6
CONTINUOUS
10
118.78
20
-86.056
11
118.78
21
-86.344
0
LINE
8
BLACK
6
CONTINUOUS
10
118.78
20
-86.344
11
118.777
21
-86.3578
0
LINE
8
BLACK
6
CONTINUOUS
10
118.777
20
-86.3578
11
118.769
21
-86.3695
0
LINE
8
BLACK
6
CONTINUOUS
10
118.769
20
-86.3695
11
118.758
21
-86.3773
0
LINE
8
BLACK
6
CONTINUOUS
10
118.758
20
-86.3773
11
118.744
21
-86.38
0
LINE
8
BLACK
6
CONTINUOUS
10
118.744
20
-86.38
11
118.356
21
-86.38
0
LINE
8
BLACK
6
CONTINUOUS
10
118.356
20
-86.38
11
118.342
21
-86.3773
0
LINE
8
BLACK
6
CONTINUOUS
10
118.342
20
-86.3773
11
118.331
21
-86.3695
0
LINE
8
BLACK
6
CONTINUOUS
10
118.331
20
-86.3695
11
118.323
21
-86.3578
0
LINE
8
BLACK
6
CONTINUOUS
10
118.323
20
-86.3578
11
118.32
21
-86.344
0
LINE
8
BLACK
6
CONTINUOUS
10
118.32
20
-86.344
11
118.32
21
-86.056
0
LINE
8
BLACK
6
CONTINUOUS
10
118.32
20
-86.056
11
118.323
21
-86.0422
0
LINE
8
BLACK
6
CONTINUOUS
10
118.323
20
-86.0422
11
118.331
21
-86.0305
0
LINE
8
BLACK
6
CONTINUOUS
10
118.331
20
-86.0305
11
118.342
21
-86.0227
0
LINE
8
BLACK
6
CONTINUOUS
10
118.342
20
-86.0227
11
118.356
21
-86.02
0
LINE
8
BLACK
6
CONTINUOUS
10
118.356
20
-86.02
11
118.744
21
-86.02
0
LINE
8
BLACK
6
CONTINUOUS
10
118.744
20
-86.02
11
118.758
21
-86.0227
0
LINE
8
BLACK
6
CONTINUOUS
10
118.758
20
-85.1227
11
118.769
21
-85.1305
0
LINE
8
BLACK
6
CONTINUOUS
10
118.769
20
-85.1305
11
118.777
21
-85.1422
0
LINE
8
BLACK
6
CONTINUOUS
10
118.777
20
-85.1422
11
118.78
21
-85.156
0
LINE
8
BLACK
6
CONTINUOUS
10
118.78
20
-85.156
11
118.78
21
-85.444
0
LINE
8
BLACK
6
CONTINUOUS
10
118.78
20
-85.444
11
118.777
21
-85.4578
0
LINE
8
BLACK
6
CONTINUOUS
10
118.777
20
-85.4578
11
118.769
21
-85.4695
0
LINE
8
BLACK
6
CONTINUOUS
10
118.769
20
-85.4695
11
118.758
21
-85.4773
0
LINE
8
BLACK
6
CONTINUOUS
10
118.758
20
-85.4773
11
118.744
21
-85.48
0
LINE
8
BLACK
6
CONTINUOUS
10
118.744
20
-85.48
11
118.356
21
-85.48
0
LINE
8
BLACK
6
CONTINUOUS
10
118.356
20
-85.48
11
118.342
21
-85.4773
0
LINE
8
BLACK
6
CONTINUOUS
10
118.342
20
-85.4773
11
118.331
21
-85.4695
0
LINE
8
BLACK
6
CONTINUOUS
10
118.331
20
-85.4695
11
118.323
21
-85.4578
0
LINE
8
BLACK
6
CONTINUOUS
10
118.323
20
-85.4578
11
118.32
21
-85.444
0
LINE
8
BLACK
6
CONTINUOUS
10
118.32
20
-85.444
11
118.32
21
-85.156
0
LINE
8
BLACK
6
CONTINUOUS
10
118.32
20
-85.156
11
118.323
21
-85.1422
0
LINE
8
BLACK
6
CONTINUOUS
10
118.323
20
-85.1422
11
118.331
21
-85.1305
0
LINE
8
BLACK
6
CONTINUOUS
10
118.331
20
-85.1305
11
118.342
21
-85.1227
0
LINE
8
BLACK
6
CONTINUOUS
10
118.342
20
-85.1227
11
118.356
21
-85.12
0
LINE
8
BLACK
6
CONTINUOUS
10
118.356
20
-85.12
11
118.744
21
-85.12
0
LINE
8
BLACK
6
CONTINUOUS
10
118.744
20
-85.12
11
118.758
21
-85.1227
0
LINE
8
BLACK
6
CONTINUOUS
10
125.558
20
-81.7227
11
125.569
21
-81.7305
0
LINE
8
BLACK
6
CONTINUOUS
10
125.569
20
-81.7305
11
125.577
21
-81.7422
0
LINE
8
BLACK
6
CONTINUOUS
10
125.577
20
-81.7422
11
125.58
21
-81.756
0
LINE
8
BLACK
6
CONTINUOUS
10
125.58
20
-81.756
11
125.58
21
-82.144
0
LINE
8
BLACK
6
CONTINUOUS
10
125.58
20
-82.144
11
125.577
21
-82.1578
0
LINE
8
BLACK
6
CONTINUOUS
10
125.577
20
-82.1578
11
125.569
21
-82.1695
0
LINE
8
BLACK
6
CONTINUOUS
10
125.569
20
-82.1695
11
125.558
21
-82.1773
0
LINE
8
BLACK
6
CONTINUOUS
10
125.558
20
-82.1773
11
125.544
21
-82.18
0
LINE
8
BLACK
6
CONTINUOUS
10
125.544
20
-82.18
11
125.256
21
-82.18
0
LINE
8
BLACK
6
CONTINUOUS
10
125.256
20
-82.18
11
125.242
21
-82.1773
0
LINE
8
BLACK
6
CONTINUOUS
10
125.242
20
-82.1773
11
125.231
21
-82.1695
0
LINE
8
BLACK
6
CONTINUOUS
10
125.231
20
-82.1695
11
125.223
21
-82.1578
0
LINE
8
BLACK
6
CONTINUOUS
10
125.223
20
-82.1578
11
125.22
21
-82.144
0
LINE
8
BLACK
6
CONTINUOUS
10
125.22
20
-82.144
11
125.22
21
-81.756
0
LINE
8
BLACK
6
CONTINUOUS
10
125.22
20
-81.756
11
125.223
21
-81.7422
0
LINE
8
BLACK
6
CONTINUOUS
10
125.223
20
-81.7422
11
125.231
21
-81.7305
0
LINE
8
BLACK
6
CONTINUOUS
10
125.231
20
-81.7305
11
125.242
21
-81.7227
0
LINE
8
BLACK
6
CONTINUOUS
10
125.242
20
-81.7227
11
125.256
21
-81.72
0
LINE
8
BLACK
6
CONTINUOUS
10
125.256
20
-81.72
11
125.544
21
-81.72
0
LINE
8
BLACK
6
CONTINUOUS
10
125.544
20
-81.72
11
125.558
21
-81.7227
0
LINE
8
BLACK
6
CONTINUOUS
10
126.458
20
-81.7227
11
126.469
21
-81.7305
0
LINE
8
BLACK
6
CONTINUOUS
10
126.469
20
-81.7305
11
126.477
21
-81.7422
0
LINE
8
BLACK
6
CONTINUOUS
10
126.477
20
-81.7422
11
126.48
21
-81.756
0
LINE
8
BLACK
6
CONTINUOUS
10
126.48
20
-81.756
11
126.48
21
-82.144
0
LINE
8
BLACK
6
CONTINUOUS
10
126.48
20
-82.144
11
126.477
21
-82.1578
0
LINE
8
BLACK
6
CONTINUOUS
10
126.477
20
-82.1578
11
126.469
21
-82.1695
0
LINE
8
BLACK
6
CONTINUOUS
10
126.469
20
-82.1695
11
126.458
21
-82.1773
0
LINE
8
BLACK
6
CONTINUOUS
10
126.458
20
-82.1773
11
126.444
21
-82.18
0
LINE
8
BLACK
6
CONTINUOUS
10
126.444
20
-82.18
11
126.156
21
-82.18
0
LINE
8
BLACK
6
CONTINUOUS
10
126.156
20
-82.18
11
126.142
21
-82.1773
0
LINE
8
BLACK
6
CONTINUOUS
10
126.142
20
-82.1773
11
126.131
21
-82.1695
0
LINE
8
BLACK
6
CONTINUOUS
10
126.131
20
-82.1695
11
126.123
21
-82.1578
0
LINE
8
BLACK
6
CONTINUOUS
10
126.123
20
-82.1578
11
126.12
21
-82.144
0
LINE
8
BLACK
6
CONTINUOUS
10
126.12
20
-82.144
11
126.12
21
-81.756
0
LINE
8
BLACK
6
CONTINUOUS
10
126.12
20
-81.756
11
126.123
21
-81.7422
0
LINE
8
BLACK
6
CONTINUOUS
10
126.123
20
-81.7422
11
126.131
21
-81.7305
0
LINE
8
BLACK
6
CONTINUOUS
10
126.131
20
-81.7305
11
126.142
21
-81.7227
0
LINE
8
BLACK
6
CONTINUOUS
10
126.142
20
-81.7227
11
126.156
21
-81.72
0
LINE
8
BLACK
6
CONTINUOUS
10
126.156
20
-81.72
11
126.444
21
-81.72
0
LINE
8
BLACK
6
CONTINUOUS
10
126.444
20
-81.72
11
126.458
21
-81.7227
0
LINE
8
BLACK
6
CONTINUOUS
10
118.758
20
-81.3727
11
118.769
21
-81.3805
0
LINE
8
BLACK
6
CONTINUOUS
10
118.769
20
-81.3805
11
118.777
21
-81.3922
0
LINE
8
BLACK
6
CONTINUOUS
10
118.777
20
-81.3922
11
118.78
21
-81.406
0
LINE
8
BLACK
6
CONTINUOUS
10
118.78
20
-81.406
11
118.78
21
-81.794
0
LINE
8
BLACK
6
CONTINUOUS
10
118.78
20
-81.794
11
118.777
21
-81.8078
0
LINE
8
BLACK
6
CONTINUOUS
10
118.777
20
-81.8078
11
118.769
21
-81.8195
0
LINE
8
BLACK
6
CONTINUOUS
10
118.769
20
-81.8195
11
118.758
21
-81.8273
0
LINE
8
BLACK
6
CONTINUOUS
10
118.758
20
-81.8273
11
118.744
21
-81.83
0
LINE
8
BLACK
6
CONTINUOUS
10
118.744
20
-81.83
11
118.456
21
-81.83
0
LINE
8
BLACK
6
CONTINUOUS
10
118.456
20
-81.83
11
118.442
21
-81.8273
0
LINE
8
BLACK
6
CONTINUOUS
10
118.442
20
-81.8273
11
118.431
21
-81.8195
0
LINE
8
BLACK
6
CONTINUOUS
10
118.431
20
-81.8195
11
118.423
21
-81.8078
0
LINE
8
BLACK
6
CONTINUOUS
10
118.423
20
-81.8078
11
118.42
21
-81.794
0
LINE
8
BLACK
6
CONTINUOUS
10
118.42
20
-81.794
11
118.42
21
-81.406
0
LINE
8
BLACK
6
CONTINUOUS
10
118.42
20
-81.406
11
118.423
21
-81.3922
0
LINE
8
BLACK
6
CONTINUOUS
10
118.423
20
-81.3922
11
118.431
21
-81.3805
0
LINE
8
BLACK
6
CONTINUOUS
10
118.431
20
-81.3805
11
118.442
21
-81.3727
0
LINE
8
BLACK
6
CONTINUOUS
10
118.442
20
-81.3727
11
118.456
21
-81.37
0
LINE
8
BLACK
6
CONTINUOUS
10
118.456
20
-81.37
11
118.744
21
-81.37
0
LINE
8
BLACK
6
CONTINUOUS
10
118.744
20
-81.37
11
118.758
21
-81.3727
0
LINE
8
BLACK
6
CONTINUOUS
10
117.858
20
-81.3727
11
117.869
21
-81.3805
0
LINE
8
BLACK
6
CONTINUOUS
10
117.869
20
-81.3805
11
117.877
21
-81.3922
0
LINE
8
BLACK
6
CONTINUOUS
10
117.877
20
-81.3922
11
117.88
21
-81.406
0
LINE
8
BLACK
6
CONTINUOUS
10
117.88
20
-81.406
11
117.88
21
-81.794
0
LINE
8
BLACK
6
CONTINUOUS
10
117.88
20
-81.794
11
117.877
21
-81.8078
0
LINE
8
BLACK
6
CONTINUOUS
10
117.877
20
-81.8078
11
117.869
21
-81.8195
0
LINE
8
BLACK
6
CONTINUOUS
10
117.869
20
-81.8195
11
117.858
21
-81.8273
0
LINE
8
BLACK
6
CONTINUOUS
10
117.858
20
-81.8273
11
117.844
21
-81.83
0
LINE
8
BLACK
6
CONTINUOUS
10
117.844
20
-81.83
11
117.556
21
-81.83
0
LINE
8
BLACK
6
CONTINUOUS
10
117.556
20
-81.83
11
117.542
21
-81.8273
0
LINE
8
BLACK
6
CONTINUOUS
10
117.542
20
-81.8273
11
117.531
21
-81.8195
0
LINE
8
BLACK
6
CONTINUOUS
10
117.531
20
-81.8195
11
117.523
21
-81.8078
0
LINE
8
BLACK
6
CONTINUOUS
10
117.523
20
-81.8078
11
117.52
21
-81.794
0
LINE
8
BLACK
6
CONTINUOUS
10
117.52
20
-81.794
11
117.52
21
-81.406
0
LINE
8
BLACK
6
CONTINUOUS
10
117.52
20
-81.406
11
117.523
21
-81.3922
0
LINE
8
BLACK
6
CONTINUOUS
10
117.523
20
-81.3922
11
117.531
21
-81.3805
0
LINE
8
BLACK
6
CONTINUOUS
10
117.531
20
-81.3805
11
117.542
21
-81.3727
0
LINE
8
BLACK
6
CONTINUOUS
10
117.542
20
-81.3727
11
117.556
21
-81.37
0
LINE
8
BLACK
6
CONTINUOUS
10
117.556
20
-81.37
11
117.844
21
-81.37
0
LINE
8
BLACK
6
CONTINUOUS
10
117.844
20
-81.37
11
117.858
21
-81.3727
0
LINE
8
BLACK
6
CONTINUOUS
10
126.458
20
-80.6727
11
126.469
21
-80.6805
0
LINE
8
BLACK
6
CONTINUOUS
10
126.469
20
-80.6805
11
126.477
21
-80.6922
0
LINE
8
BLACK
6
CONTINUOUS
10
126.477
20
-80.6922
11
126.48
21
-80.706
0
LINE
8
BLACK
6
CONTINUOUS
10
126.48
20
-80.706
11
126.48
21
-81.094
0
LINE
8
BLACK
6
CONTINUOUS
10
126.48
20
-81.094
11
126.477
21
-81.1078
0
LINE
8
BLACK
6
CONTINUOUS
10
126.477
20
-81.1078
11
126.469
21
-81.1195
0
LINE
8
BLACK
6
CONTINUOUS
10
126.469
20
-81.1195
11
126.458
21
-81.1273
0
LINE
8
BLACK
6
CONTINUOUS
10
126.458
20
-81.1273
11
126.444
21
-81.13
0
LINE
8
BLACK
6
CONTINUOUS
10
126.444
20
-81.13
11
126.156
21
-81.13
0
LINE
8
BLACK
6
CONTINUOUS
10
126.156
20
-81.13
11
126.142
21
-81.1273
0
LINE
8
BLACK
6
CONTINUOUS
10
126.142
20
-81.1273
11
126.131
21
-81.1195
0
LINE
8
BLACK
6
CONTINUOUS
10
126.131
20
-81.1195
11
126.123
21
-81.1078
0
LINE
8
BLACK
6
CONTINUOUS
10
126.123
20
-81.1078
11
126.12
21
-81.094
0
LINE
8
BLACK
6
CONTINUOUS
10
126.12
20
-81.094
11
126.12
21
-80.706
0
LINE
8
BLACK
6
CONTINUOUS
10
126.12
20
-80.706
11
126.123
21
-80.6922
0
LINE
8
BLACK
6
CONTINUOUS
10
126.123
20
-80.6922
11
126.131
21
-80.6805
0
LINE
8
BLACK
6
CONTINUOUS
10
126.131
20
-80.6805
11
126.142
21
-80.6727
0
LINE
8
BLACK
6
CONTINUOUS
10
126.142
20
-80.6727
11
126.156
21
-80.67
0
LINE
8
BLACK
6
CONTINUOUS
10
126.156
20
-80.67
11
126.444
21
-80.67
0
LINE
8
BLACK
6
CONTINUOUS
10
126.444
20
-80.67
11
126.458
21
-80.6727
0
LINE
8
BLACK
6
CONTINUOUS
10
125.558
20
-80.6727
11
125.569
21
-80.6805
0
LINE
8
BLACK
6
CONTINUOUS
10
125.569
20
-80.6805
11
125.577
21
-80.6922
0
LINE
8
BLACK
6
CONTINUOUS
10
125.577
20
-80.6922
11
125.58
21
-80.706
0
LINE
8
BLACK
6
CONTINUOUS
10
125.58
20
-80.706
11
125.58
21
-81.094
0
LINE
8
BLACK
6
CONTINUOUS
10
125.58
20
-81.094
11
125.577
21
-81.1078
0
LINE
8
BLACK
6
CONTINUOUS
10
125.577
20
-81.1078
11
125.569
21
-81.1195
0
LINE
8
BLACK
6
CONTINUOUS
10
125.569
20
-81.1195
11
125.558
21
-81.1273
0
LINE
8
BLACK
6
CONTINUOUS
10
125.558
20
-81.1273
11
125.544
21
-81.13
0
LINE
8
BLACK
6
CONTINUOUS
10
125.544
20
-81.13
11
125.256
21
-81.13
0
LINE
8
BLACK
6
CONTINUOUS
10
125.256
20
-81.13
11
125.242
21
-81.1273
0
LINE
8
BLACK
6
CONTINUOUS
10
125.242
20
-81.1273
11
125.231
21
-81.1195
0
LINE
8
BLACK
6
CONTINUOUS
10
125.231
20
-81.1195
11
125.223
21
-81.1078
0
LINE
8
BLACK
6
CONTINUOUS
10
125.223
20
-81.1078
11
125.22
21
-81.094
0
LINE
8
BLACK
6
CONTINUOUS
10
125.22
20
-81.094
11
125.22
21
-80.706
0
LINE
8
BLACK
6
CONTINUOUS
10
125.22
20
-80.706
11
125.223
21
-80.6922
0
LINE
8
BLACK
6
CONTINUOUS
10
125.223
20
-80.6922
11
125.231
21
-80.6805
0
LINE
8
BLACK
6
CONTINUOUS
10
125.231
20
-80.6805
11
125.242
21
-80.6727
0
LINE
8
BLACK
6
CONTINUOUS
10
125.242
20
-80.6727
11
125.256
21
-80.67
0
LINE
8
BLACK
6
CONTINUOUS
10
125.256
20
-80.67
11
125.544
21
-80.67
0
LINE
8
BLACK
6
CONTINUOUS
10
125.544
20
-80.67
11
125.558
21
-80.6727
0
LINE
8
BLACK
6
CONTINUOUS
10
118.758
20
-80.2727
11
118.769
21
-80.2805
0
LINE
8
BLACK
6
CONTINUOUS
10
118.769
20
-80.2805
11
118.777
21
-80.2922
0
LINE
8
BLACK
6
CONTINUOUS
10
118.777
20
-80.2922
11
118.78
21
-80.306
0
LINE
8
BLACK
6
CONTINUOUS
10
118.78
20
-80.306
11
118.78
21
-80.694
0
LINE
8
BLACK
6
CONTINUOUS
10
118.78
20
-80.694
11
118.777
21
-80.7078
0
LINE
8
BLACK
6
CONTINUOUS
10
118.777
20
-80.7078
11
118.769
21
-80.7195
0
LINE
8
BLACK
6
CONTINUOUS
10
118.769
20
-80.7195
11
118.758
21
-80.7273
0
LINE
8
BLACK
6
CONTINUOUS
10
118.758
20
-80.7273
11
118.744
21
-80.73
0
LINE
8
BLACK
6
CONTINUOUS
10
118.744
20
-80.73
11
118.456
21
-80.73
0
LINE
8
BLACK
6
CONTINUOUS
10
118.456
20
-80.73
11
118.442
21
-80.7273
0
LINE
8
BLACK
6
CONTINUOUS
10
118.442
20
-80.7273
11
118.431
21
-80.7195
0
LINE
8
BLACK
6
CONTINUOUS
10
118.431
20
-80.7195
11
118.423
21
-80.7078
0
LINE
8
BLACK
6
CONTINUOUS
10
118.423
20
-80.7078
11
118.42
21
-80.694
0
LINE
8
BLACK
6
CONTINUOUS
10
118.42
20
-80.694
11
118.42
21
-80.306
0
LINE
8
BLACK
6
CONTINUOUS
10
118.42
20
-80.306
11
118.423
21
-80.2922
0
LINE
8
BLACK
6
CONTINUOUS
10
118.423
20
-80.2922
11
118.431
21
-80.2805
0
LINE
8
BLACK
6
CONTINUOUS
10
118.431
20
-80.2805
11
118.442
21
-80.2727
0
LINE
8
BLACK
6
CONTINUOUS
10
118.442
20
-80.2727
11
118.456
21
-80.27
0
LINE
8
BLACK
6
CONTINUOUS
10
118.456
20
-80.27
11
118.744
21
-80.27
0
LINE
8
BLACK
6
CONTINUOUS
10
118.744
20
-80.27
11
118.758
21
-80.2727
0
LINE
8
BLACK
6
CONTINUOUS
10
117.858
20
-80.2727
11
117.869
21
-80.2805
0
LINE
8
BLACK
6
CONTINUOUS
10
117.869
20
-80.2805
11
117.877
21
-80.2922
0
LINE
8
BLACK
6
CONTINUOUS
10
117.877
20
-80.2922
11
117.88
21
-80.306
0
LINE
8
BLACK
6
CONTINUOUS
10
117.88
20
-80.306
11
117.88
21
-80.694
0
LINE
8
BLACK
6
CONTINUOUS
10
117.88
20
-80.694
11
117.877
21
-80.7078
0
LINE
8
BLACK
6
CONTINUOUS
10
117.877
20
-80.7078
11
117.869
21
-80.7195
0
LINE
8
BLACK
6
CONTINUOUS
10
117.869
20
-80.7195
11
117.858
21
-80.7273
0
LINE
8
BLACK
6
CONTINUOUS
10
117.858
20
-80.7273
11
117.844
21
-80.73
0
LINE
8
BLACK
6
CONTINUOUS
10
117.844
20
-80.73
11
117.556
21
-80.73
0
LINE
8
BLACK
6
CONTINUOUS
10
117.556
20
-80.73
11
117.542
21
-80.7273
0
LINE
8
BLACK
6
CONTINUOUS
10
117.542
20
-80.7273
11
117.531
21
-80.7195
0
LINE
8
BLACK
6
CONTINUOUS
10
117.531
20
-80.7195
11
117.523
21
-80.7078
0
LINE
8
BLACK
6
CONTINUOUS
10
117.523
20
-80.7078
11
117.52
21
-80.694
0
LINE
8
BLACK
6
CONTINUOUS
10
117.52
20
-80.694
11
117.52
21
-80.306
0
LINE
8
BLACK
6
CONTINUOUS
10
117.52
20
-80.306
11
117.523
21
-80.2922
0
LINE
8
BLACK
6
CONTINUOUS
10
117.523
20
-80.2922
11
117.531
21
-80.2805
0
LINE
8
BLACK
6
CONTINUOUS
10
117.531
20
-80.2805
11
117.542
21
-80.2727
0
LINE
8
BLACK
6
CONTINUOUS
10
117.542
20
-80.2727
11
117.556
21
-80.27
0
LINE
8
BLACK
6
CONTINUOUS
10
117.556
20
-80.27
11
117.844
21
-80.27
0
LINE
8
BLACK
6
CONTINUOUS
10
117.844
20
-80.27
11
117.858
21
-80.2727
0
LINE
8
BLACK
6
CONTINUOUS
10
125.658
20
-77.1227
11
125.669
21
-77.1305
0
LINE
8
BLACK
6
CONTINUOUS
10
125.669
20
-77.1305
11
125.677
21
-77.1422
0
LINE
8
BLACK
6
CONTINUOUS
10
125.677
20
-77.1422
11
125.68
21
-77.156
0
LINE
8
BLACK
6
CONTINUOUS
10
125.68
20
-77.156
11
125.68
21
-77.444
0
LINE
8
BLACK
6
CONTINUOUS
10
125.68
20
-77.444
11
125.677
21
-77.4578
0
LINE
8
BLACK
6
CONTINUOUS
10
125.677
20
-77.4578
11
125.669
21
-77.4695
0
LINE
8
BLACK
6
CONTINUOUS
10
125.669
20
-77.4695
11
125.658
21
-77.4773
0
LINE
8
BLACK
6
CONTINUOUS
10
125.658
20
-77.4773
11
125.644
21
-77.48
0
LINE
8
BLACK
6
CONTINUOUS
10
125.644
20
-77.48
11
125.256
21
-77.48
0
LINE
8
BLACK
6
CONTINUOUS
10
125.256
20
-77.48
11
125.242
21
-77.4773
0
LINE
8
BLACK
6
CONTINUOUS
10
125.242
20
-77.4773
11
125.231
21
-77.4695
0
LINE
8
BLACK
6
CONTINUOUS
10
125.231
20
-77.4695
11
125.223
21
-77.4578
0
LINE
8
BLACK
6
CONTINUOUS
10
125.223
20
-77.4578
11
125.22
21
-77.444
0
LINE
8
BLACK
6
CONTINUOUS
10
125.22
20
-77.444
11
125.22
21
-77.156
0
LINE
8
BLACK
6
CONTINUOUS
10
125.22
20
-77.156
11
125.223
21
-77.1422
0
LINE
8
BLACK
6
CONTINUOUS
10
125.223
20
-77.1422
11
125.231
21
-77.1305
0
LINE
8
BLACK
6
CONTINUOUS
10
125.231
20
-77.1305
11
125.242
21
-77.1227
0
LINE
8
BLACK
6
CONTINUOUS
10
125.242
20
-77.1227
11
125.256
21
-77.12
0
LINE
8
BLACK
6
CONTINUOUS
10
125.256
20
-77.12
11
125.644
21
-77.12
0
LINE
8
BLACK
6
CONTINUOUS
10
125.644
20
-77.12
11
125.658
21
-77.1227
0
LINE
8
BLACK
6
CONTINUOUS
10
125.658
20
-76.2227
11
125.669
21
-76.2305
0
LINE
8
BLACK
6
CONTINUOUS
10
125.669
20
-76.2305
11
125.677
21
-76.2422
0
LINE
8
BLACK
6
CONTINUOUS
10
125.677
20
-76.2422
11
125.68
21
-76.256
0
LINE
8
BLACK
6
CONTINUOUS
10
125.68
20
-76.256
11
125.68
21
-76.544
0
LINE
8
BLACK
6
CONTINUOUS
10
125.68
20
-76.544
11
125.677
21
-76.5578
0
LINE
8
BLACK
6
CONTINUOUS
10
125.677
20
-76.5578
11
125.669
21
-76.5695
0
LINE
8
BLACK
6
CONTINUOUS
10
125.669
20
-76.5695
11
125.658
21
-76.5773
0
LINE
8
BLACK
6
CONTINUOUS
10
125.658
20
-76.5773
11
125.644
21
-76.58
0
LINE
8
BLACK
6
CONTINUOUS
10
125.644
20
-76.58
11
125.256
21
-76.58
0
LINE
8
BLACK
6
CONTINUOUS
10
125.256
20
-76.58
11
125.242
21
-76.5773
0
LINE
8
BLACK
6
CONTINUOUS
10
125.242
20
-76.5773
11
125.231
21
-76.5695
0
LINE
8
BLACK
6
CONTINUOUS
10
125.231
20
-76.5695
11
125.223
21
-76.5578
0
LINE
8
BLACK
6
CONTINUOUS
10
125.223
20
-76.5578
11
125.22
21
-76.544
0
LINE
8
BLACK
6
CONTINUOUS
10
125.22
20
-76.544
11
125.22
21
-76.256
0
LINE
8
BLACK
6
CONTINUOUS
10
125.22
20
-76.256
11
125.223
21
-76.2422
0
LINE
8
BLACK
6
CONTINUOUS
10
125.223
20
-76.2422
11
125.231
21
-76.2305
0
LINE
8
BLACK
6
CONTINUOUS
10
125.231
20
-76.2305
11
125.242
21
-76.2227
0
LINE
8
BLACK
6
CONTINUOUS
10
125.242
20
-76.2227
11
125.256
21
-76.22
0
LINE
8
BLACK
6
CONTINUOUS
10
125.256
20
-76.22
11
125.644
21
-76.22
0
LINE
8
BLACK
6
CONTINUOUS
10
125.644
20
-76.22
11
125.658
21
-76.2227
0
LINE
8
BLACK
6
CONTINUOUS
10
125.658
20
-74.9727
11
125.669
21
-74.9805
0
LINE
8
BLACK
6
CONTINUOUS
10
125.669
20
-74.9805
11
125.677
21
-74.9922
0
LINE
8
BLACK
6
CONTINUOUS
10
125.677
20
-74.9922
11
125.68
21
-75.006
0
LINE
8
BLACK
6
CONTINUOUS
10
125.68
20
-75.006
11
125.68
21
-75.294
0
LINE
8
BLACK
6
CONTINUOUS
10
125.68
20
-75.294
11
125.677
21
-75.3078
0
LINE
8
BLACK
6
CONTINUOUS
10
125.677
20
-75.3078
11
125.669
21
-75.3195
0
LINE
8
BLACK
6
CONTINUOUS
10
125.669
20
-75.3195
11
125.658
21
-75.3273
0
LINE
8
BLACK
6
CONTINUOUS
10
125.658
20
-75.3273
11
125.644
21
-75.33
0
LINE
8
BLACK
6
CONTINUOUS
10
125.644
20
-75.33
11
125.256
21
-75.33
0
LINE
8
BLACK
6
CONTINUOUS
10
125.256
20
-75.33
11
125.242
21
-75.3273
0
LINE
8
BLACK
6
CONTINUOUS
10
125.242
20
-75.3273
11
125.231
21
-75.3195
0
LINE
8
BLACK
6
CONTINUOUS
10
125.231
20
-75.3195
11
125.223
21
-75.3078
0
LINE
8
BLACK
6
CONTINUOUS
10
125.223
20
-75.3078
11
125.22
21
-75.294
0
LINE
8
BLACK
6
CONTINUOUS
10
125.22
20
-75.294
11
125.22
21
-75.006
0
LINE
8
BLACK
6
CONTINUOUS
10
125.22
20
-75.006
11
125.223
21
-74.9922
0
LINE
8
BLACK
6
CONTINUOUS
10
125.223
20
-74.9922
11
125.231
21
-74.9805
0
LINE
8
BLACK
6
CONTINUOUS
10
125.231
20
-74.9805
11
125.242
21
-74.9727
0
LINE
8
BLACK
6
CONTINUOUS
10
125.242
20
-74.9727
11
125.256
21
-74.97
0
LINE
8
BLACK
6
CONTINUOUS
10
125.256
20
-74.97
11
125.644
21
-74.97
0
LINE
8
BLACK
6
CONTINUOUS
10
125.644
20
-74.97
11
125.658
21
-74.9727
0
LINE
8
BLACK
6
CONTINUOUS
10
134.766
20
-74.1542
11
134.784
21
-74.1661
0
LINE
8
BLACK
6
CONTINUOUS
10
134.784
20
-74.1661
11
134.796
21
-74.184
0
LINE
8
BLACK
6
CONTINUOUS
10
134.796
20
-74.184
11
134.8
21
-74.205
0
LINE
8
BLACK
6
CONTINUOUS
10
134.8
20
-74.205
11
134.8
21
-74.645
0
LINE
8
BLACK
6
CONTINUOUS
10
134.8
20
-74.645
11
134.796
21
-74.666
0
LINE
8
BLACK
6
CONTINUOUS
10
134.796
20
-74.666
11
134.784
21
-74.6839
0
LINE
8
BLACK
6
CONTINUOUS
10
134.784
20
-74.6839
11
134.766
21
-74.6958
0
LINE
8
BLACK
6
CONTINUOUS
10
134.766
20
-74.6958
11
134.745
21
-74.7
0
LINE
8
BLACK
6
CONTINUOUS
10
134.745
20
-74.7
11
133.755
21
-74.7
0
LINE
8
BLACK
6
CONTINUOUS
10
133.755
20
-74.7
11
133.734
21
-74.6958
0
LINE
8
BLACK
6
CONTINUOUS
10
133.734
20
-74.6958
11
133.716
21
-74.6839
0
LINE
8
BLACK
6
CONTINUOUS
10
133.716
20
-74.6839
11
133.704
21
-74.666
0
LINE
8
BLACK
6
CONTINUOUS
10
133.704
20
-74.666
11
133.7
21
-74.645
0
LINE
8
BLACK
6
CONTINUOUS
10
133.7
20
-74.645
11
133.7
21
-74.205
0
LINE
8
BLACK
6
CONTINUOUS
10
133.7
20
-74.205
11
133.704
21
-74.184
0
LINE
8
BLACK
6
CONTINUOUS
10
133.704
20
-74.184
11
133.716
21
-74.1661
0
LINE
8
BLACK
6
CONTINUOUS
10
133.716
20
-74.1661
11
133.734
21
-74.1542
0
LINE
8
BLACK
6
CONTINUOUS
10
133.734
20
-74.1542
11
133.755
21
-74.15
0
LINE
8
BLACK
6
CONTINUOUS
10
133.755
20
-74.15
11
134.745
21
-74.15
0
LINE
8
BLACK
6
CONTINUOUS
10
134.745
20
-74.15
11
134.766
21
-74.1542
0
LINE
8
BLACK
6
CONTINUOUS
10
109.652
20
-74.1234
11
109.667
21
-74.1332
0
LINE
8
BLACK
6
CONTINUOUS
10
109.667
20
-74.1332
11
109.677
21
-74.1478
0
LINE
8
BLACK
6
CONTINUOUS
10
109.677
20
-74.1478
11
109.68
21
-74.165
0
LINE
8
BLACK
6
CONTINUOUS
10
109.68
20
-74.165
11
109.68
21
-74.435
0
LINE
8
BLACK
6
CONTINUOUS
10
109.68
20
-74.435
11
109.677
21
-74.4522
0
LINE
8
BLACK
6
CONTINUOUS
10
109.677
20
-74.4522
11
109.667
21
-74.4668
0
LINE
8
BLACK
6
CONTINUOUS
10
109.667
20
-74.4668
11
109.652
21
-74.4766
0
LINE
8
BLACK
6
CONTINUOUS
10
109.652
20
-74.4766
11
109.635
21
-74.48
0
LINE
8
BLACK
6
CONTINUOUS
10
109.635
20
-74.48
11
109.265
21
-74.48
0
LINE
8
BLACK
6
CONTINUOUS
10
109.265
20
-74.48
11
109.248
21
-74.4766
0
LINE
8
BLACK
6
CONTINUOUS
10
109.248
20
-74.4766
11
109.233
21
-74.4668
0
LINE
8
BLACK
6
CONTINUOUS
10
109.233
20
-74.4668
11
109.223
21
-74.4522
0
LINE
8
BLACK
6
CONTINUOUS
10
109.223
20
-74.4522
11
109.22
21
-74.435
0
LINE
8
BLACK
6
CONTINUOUS
10
109.22
20
-74.435
11
109.22
21
-74.165
0
LINE
8
BLACK
6
CONTINUOUS
10
109.22
20
-74.165
11
109.223
21
-74.1478
0
LINE
8
BLACK
6
CONTINUOUS
10
109.223
20
-74.1478
11
109.233
21
-74.1332
0
LINE
8
BLACK
6
CONTINUOUS
10
109.233
20
-74.1332
11
109.248
21
-74.1234
0
LINE
8
BLACK
6
CONTINUOUS
10
109.248
20
-74.1234
11
109.265
21
-74.12
0
LINE
8
BLACK
6
CONTINUOUS
10
109.265
20
-74.12
11
109.635
21
-74.12
0
LINE
8
BLACK
6
CONTINUOUS
10
109.635
20
-74.12
11
109.652
21
-74.1234
0
LINE
8
BLACK
6
CONTINUOUS
10
125.658
20
-74.0727
11
125.669
21
-74.0805
0
LINE
8
BLACK
6
CONTINUOUS
10
125.669
20
-74.0805
11
125.677
21
-74.0922
0
LINE
8
BLACK
6
CONTINUOUS
10
125.677
20
-74.0922
11
125.68
21
-74.106
0
LINE
8
BLACK
6
CONTINUOUS
10
125.68
20
-74.106
11
125.68
21
-74.394
0
LINE
8
BLACK
6
CONTINUOUS
10
125.68
20
-74.394
11
125.677
21
-74.4078
0
LINE
8
BLACK
6
CONTINUOUS
10
125.677
20
-74.4078
11
125.669
21
-74.4195
0
LINE
8
BLACK
6
CONTINUOUS
10
125.669
20
-74.4195
11
125.658
21
-74.4273
0
LINE
8
BLACK
6
CONTINUOUS
10
125.658
20
-74.4273
11
125.644
21
-74.43
0
LINE
8
BLACK
6
CONTINUOUS
10
125.644
20
-74.43
11
125.256
21
-74.43
0
LINE
8
BLACK
6
CONTINUOUS
10
125.256
20
-74.43
11
125.242
21
-74.4273
0
LINE
8
BLACK
6
CONTINUOUS
10
125.242
20
-74.4273
11
125.231
21
-74.4195
0
LINE
8
BLACK
6
CONTINUOUS
10
125.231
20
-74.4195
11
125.223
21
-74.4078
0
LINE
8
BLACK
6
CONTINUOUS
10
125.223
20
-74.4078
11
125.22
21
-74.394
0
LINE
8
BLACK
6
CONTINUOUS
10
125.22
20
-74.394
11
125.22
21
-74.106
0
LINE
8
BLACK
6
CONTINUOUS
10
125.22
20
-74.106
11
125.223
21
-74.0922
0
LINE
8
BLACK
6
CONTINUOUS
10
125.223
20
-74.0922
11
125.231
21
-74.0805
0
LINE
8
BLACK
6
CONTINUOUS
10
125.231
20
-74.0805
11
125.242
21
-74.0727
0
LINE
8
BLACK
6
CONTINUOUS
10
125.242
20
-74.0727
11
125.256
21
-74.07
0
LINE
8
BLACK
6
CONTINUOUS
10
125.256
20
-74.07
11
125.644
21
-74.07
0
LINE
8
BLACK
6
CONTINUOUS
10
125.644
20
-74.07
11
125.658
21
-74.0727
0
LINE
8
BLACK
6
CONTINUOUS
10
109.652
20
-73.2234
11
109.667
21
-73.2332
0
LINE
8
BLACK
6
CONTINUOUS
10
109.667
20
-73.2332
11
109.677
21
-73.2478
0
LINE
8
BLACK
6
CONTINUOUS
10
109.677
20
-73.2478
11
109.68
21
-73.265
0
LINE
8
BLACK
6
CONTINUOUS
10
109.68
20
-73.265
11
109.68
21
-73.535
0
LINE
8
BLACK
6
CONTINUOUS
10
109.68
20
-73.535
11
109.677
21
-73.5522
0
LINE
8
BLACK
6
CONTINUOUS
10
109.677
20
-73.5522
11
109.667
21
-73.5668
0
LINE
8
BLACK
6
CONTINUOUS
10
109.667
20
-73.5668
11
109.652
21
-73.5766
0
LINE
8
BLACK
6
CONTINUOUS
10
109.652
20
-73.5766
11
109.635
21
-73.58
0
LINE
8
BLACK
6
CONTINUOUS
10
109.635
20
-73.58
11
109.265
21
-73.58
0
LINE
8
BLACK
6
CONTINUOUS
10
109.265
20
-73.58
11
109.248
21
-73.5766
0
LINE
8
BLACK
6
CONTINUOUS
10
109.248
20
-73.5766
11
109.233
21
-73.5668
0
LINE
8
BLACK
6
CONTINUOUS
10
109.233
20
-73.5668
11
109.223
21
-73.5522
0
LINE
8
BLACK
6
CONTINUOUS
10
109.223
20
-73.5522
11
109.22
21
-73.535
0
LINE
8
BLACK
6
CONTINUOUS
10
109.22
20
-73.535
11
109.22
21
-73.265
0
LINE
8
BLACK
6
CONTINUOUS
10
109.22
20
-73.265
11
109.223
21
-73.2478
0
LINE
8
BLACK
6
CONTINUOUS
10
109.223
20
-73.2478
11
109.233
21
-73.2332
0
LINE
8
BLACK
6
CONTINUOUS
10
109.233
20
-73.2332
11
109.248
21
-73.2234
0
LINE
8
BLACK
6
CONTINUOUS
10
109.248
20
-73.2234
11
109.265
21
-73.22
0
LINE
8
BLACK
6
CONTINUOUS
10
109.265
20
-73.22
11
109.635
21
-73.22
0
LINE
8
BLACK
6
CONTINUOUS
10
109.635
20
-73.22
11
109.652
21
-73.2234
0
LINE
8
BLACK
6
CONTINUOUS
10
134.766
20
-72.5042
11
134.784
21
-72.5161
0
LINE
8
BLACK
6
CONTINUOUS
10
134.784
20
-72.5161
11
134.796
21
-72.534
0
LINE
8
BLACK
6
CONTINUOUS
10
134.796
20
-72.534
11
134.8
21
-72.555
0
LINE
8
BLACK
6
CONTINUOUS
10
134.8
20
-72.555
11
134.8
21
-72.995
0
LINE
8
BLACK
6
CONTINUOUS
10
134.8
20
-72.995
11
134.796
21
-73.016
0
LINE
8
BLACK
6
CONTINUOUS
10
134.796
20
-73.016
11
134.784
21
-73.0339
0
LINE
8
BLACK
6
CONTINUOUS
10
134.784
20
-73.0339
11
134.766
21
-73.0458
0
LINE
8
BLACK
6
CONTINUOUS
10
134.766
20
-73.0458
11
134.745
21
-73.05
0
LINE
8
BLACK
6
CONTINUOUS
10
134.745
20
-73.05
11
133.755
21
-73.05
0
LINE
8
BLACK
6
CONTINUOUS
10
133.755
20
-73.05
11
133.734
21
-73.0458
0
LINE
8
BLACK
6
CONTINUOUS
10
133.734
20
-73.0458
11
133.716
21
-73.0339
0
LINE
8
BLACK
6
CONTINUOUS
10
133.716
20
-73.0339
11
133.704
21
-73.016
0
LINE
8
BLACK
6
CONTINUOUS
10
133.704
20
-73.016
11
133.7
21
-72.995
0
LINE
8
BLACK
6
CONTINUOUS
10
133.7
20
-72.995
11
133.7
21
-72.555
0
LINE
8
BLACK
6
CONTINUOUS
10
133.7
20
-72.555
11
133.704
21
-72.534
0
LINE
8
BLACK
6
CONTINUOUS
10
133.704
20
-72.534
11
133.716
21
-72.5161
0
LINE
8
BLACK
6
CONTINUOUS
10
133.716
20
-72.5161
11
133.734
21
-72.5042
0
LINE
8
BLACK
6
CONTINUOUS
10
133.734
20
-72.5042
11
133.755
21
-72.5
0
LINE
8
BLACK
6
CONTINUOUS
10
133.755
20
-72.5
11
134.745
21
-72.5
0
LINE
8
BLACK
6
CONTINUOUS
10
134.745
20
-72.5
11
134.766
21
-72.5042
0
LINE
8
BLACK
6
CONTINUOUS
10
118.802
20
-71.9734
11
118.817
21
-71.9832
0
LINE
8
BLACK
6
CONTINUOUS
10
118.817
20
-71.9832
11
118.827
21
-71.9978
0
LINE
8
BLACK
6
CONTINUOUS
10
118.827
20
-71.9978
11
118.83
21
-72.015
0
LINE
8
BLACK
6
CONTINUOUS
10
118.83
20
-72.015
11
118.83
21
-72.285
0
LINE
8
BLACK
6
CONTINUOUS
10
118.83
20
-72.285
11
118.827
21
-72.3022
0
LINE
8
BLACK
6
CONTINUOUS
10
118.827
20
-72.3022
11
118.817
21
-72.3168
0
LINE
8
BLACK
6
CONTINUOUS
10
118.817
20
-72.3168
11
118.802
21
-72.3266
0
LINE
8
BLACK
6
CONTINUOUS
10
118.802
20
-72.3266
11
118.785
21
-72.33
0
LINE
8
BLACK
6
CONTINUOUS
10
118.785
20
-72.33
11
118.415
21
-72.33
0
LINE
8
BLACK
6
CONTINUOUS
10
118.415
20
-72.33
11
118.398
21
-72.3266
0
LINE
8
BLACK
6
CONTINUOUS
10
118.398
20
-72.3266
11
118.383
21
-72.3168
0
LINE
8
BLACK
6
CONTINUOUS
10
118.383
20
-72.3168
11
118.373
21
-72.3022
0
LINE
8
BLACK
6
CONTINUOUS
10
118.373
20
-72.3022
11
118.37
21
-72.285
0
LINE
8
BLACK
6
CONTINUOUS
10
118.37
20
-72.285
11
118.37
21
-72.015
0
LINE
8
BLACK
6
CONTINUOUS
10
118.37
20
-72.015
11
118.373
21
-71.9978
0
LINE
8
BLACK
6
CONTINUOUS
10
118.373
20
-71.9978
11
118.383
21
-71.9832
0
LINE
8
BLACK
6
CONTINUOUS
10
118.383
20
-71.9832
11
118.398
21
-71.9734
0
LINE
8
BLACK
6
CONTINUOUS
10
118.398
20
-71.9734
11
118.415
21
-71.97
0
LINE
8
BLACK
6
CONTINUOUS
10
118.415
20
-71.97
11
118.785
21
-71.97
0
LINE
8
BLACK
6
CONTINUOUS
10
118.785
20
-71.97
11
118.802
21
-71.9734
0
LINE
8
BLACK
6
CONTINUOUS
10
118.802
20
-71.0734
11
118.817
21
-71.0832
0
LINE
8
BLACK
6
CONTINUOUS
10
118.817
20
-71.0832
11
118.827
21
-71.0978
0
LINE
8
BLACK
6
CONTINUOUS
10
118.827
20
-71.0978
11
118.83
21
-71.115
0
LINE
8
BLACK
6
CONTINUOUS
10
118.83
20
-71.115
11
118.83
21
-71.385
0
LINE
8
BLACK
6
CONTINUOUS
10
118.83
20
-71.385
11
118.827
21
-71.4022
0
LINE
8
BLACK
6
CONTINUOUS
10
118.827
20
-71.4022
11
118.817
21
-71.4168
0
LINE
8
BLACK
6
CONTINUOUS
10
118.817
20
-71.4168
11
118.802
21
-71.4266
0
LINE
8
BLACK
6
CONTINUOUS
10
118.802
20
-71.4266
11
118.785
21
-71.43
0
LINE
8
BLACK
6
CONTINUOUS
10
118.785
20
-71.43
11
118.415
21
-71.43
0
LINE
8
BLACK
6
CONTINUOUS
10
118.415
20
-71.43
11
118.398
21
-71.4266
0
LINE
8
BLACK
6
CONTINUOUS
10
118.398
20
-71.4266
11
118.383
21
-71.4168
0
LINE
8
BLACK
6
CONTINUOUS
10
118.383
20
-71.4168
11
118.373
21
-71.4022
0
LINE
8
BLACK
6
CONTINUOUS
10
118.373
20
-71.4022
11
118.37
21
-71.385
0
LINE
8
BLACK
6
CONTINUOUS
10
118.37
20
-71.385
11
118.37
21
-71.115
0
LINE
8
BLACK
6
CONTINUOUS
10
118.37
20
-71.115
11
118.373
21
-71.0978
0
LINE
8
BLACK
6
CONTINUOUS
10
118.373
20
-71.0978
11
118.383
21
-71.0832
0
LINE
8
BLACK
6
CONTINUOUS
10
118.383
20
-71.0832
11
118.398
21
-71.0734
0
LINE
8
BLACK
6
CONTINUOUS
10
118.398
20
-71.0734
11
118.415
21
-71.07
0
LINE
8
BLACK
6
CONTINUOUS
10
118.415
20
-71.07
11
118.785
21
-71.07
0
LINE
8
BLACK
6
CONTINUOUS
10
118.785
20
-71.07
11
118.802
21
-71.0734
0
LINE
8
BLACK
6
CONTINUOUS
10
126.552
20
-70.2734
11
126.567
21
-70.2832
0
LINE
8
BLACK
6
CONTINUOUS
10
126.567
20
-70.2832
11
126.577
21
-70.2978
0
LINE
8
BLACK
6
CONTINUOUS
10
126.577
20
-70.2978
11
126.58
21
-70.315
0
LINE
8
BLACK
6
CONTINUOUS
10
126.58
20
-70.315
11
126.58
21
-70.685
0
LINE
8
BLACK
6
CONTINUOUS
10
126.58
20
-70.685
11
126.577
21
-70.7022
0
LINE
8
BLACK
6
CONTINUOUS
10
126.577
20
-70.7022
11
126.567
21
-70.7168
0
LINE
8
BLACK
6
CONTINUOUS
10
126.567
20
-70.7168
11
126.552
21
-70.7266
0
LINE
8
BLACK
6
CONTINUOUS
10
126.552
20
-70.7266
11
126.535
21
-70.73
0
LINE
8
BLACK
6
CONTINUOUS
10
126.535
20
-70.73
11
126.265
21
-70.73
0
LINE
8
BLACK
6
CONTINUOUS
10
126.265
20
-70.73
11
126.248
21
-70.7266
0
LINE
8
BLACK
6
CONTINUOUS
10
126.248
20
-70.7266
11
126.233
21
-70.7168
0
LINE
8
BLACK
6
CONTINUOUS
10
126.233
20
-70.7168
11
126.223
21
-70.7022
0
LINE
8
BLACK
6
CONTINUOUS
10
126.223
20
-70.7022
11
126.22
21
-70.685
0
LINE
8
BLACK
6
CONTINUOUS
10
126.22
20
-70.685
11
126.22
21
-70.315
0
LINE
8
BLACK
6
CONTINUOUS
10
126.22
20
-70.315
11
126.223
21
-70.2978
0
LINE
8
BLACK
6
CONTINUOUS
10
126.223
20
-70.2978
11
126.233
21
-70.2832
0
LINE
8
BLACK
6
CONTINUOUS
10
126.233
20
-70.2832
11
126.248
21
-70.2734
0
LINE
8
BLACK
6
CONTINUOUS
10
126.248
20
-70.2734
11
126.265
21
-70.27
0
LINE
8
BLACK
6
CONTINUOUS
10
126.265
20
-70.27
11
126.535
21
-70.27
0
LINE
8
BLACK
6
CONTINUOUS
10
126.535
20
-70.27
11
126.552
21
-70.2734
0
LINE
8
BLACK
6
CONTINUOUS
10
125.652
20
-70.2734
11
125.667
21
-70.2832
0
LINE
8
BLACK
6
CONTINUOUS
10
125.667
20
-70.2832
11
125.677
21
-70.2978
0
LINE
8
BLACK
6
CONTINUOUS
10
125.677
20
-70.2978
11
125.68
21
-70.315
0
LINE
8
BLACK
6
CONTINUOUS
10
125.68
20
-70.315
11
125.68
21
-70.685
0
LINE
8
BLACK
6
CONTINUOUS
10
125.68
20
-70.685
11
125.677
21
-70.7022
0
LINE
8
BLACK
6
CONTINUOUS
10
125.677
20
-70.7022
11
125.667
21
-70.7168
0
LINE
8
BLACK
6
CONTINUOUS
10
125.667
20
-70.7168
11
125.652
21
-70.7266
0
LINE
8
BLACK
6
CONTINUOUS
10
125.652
20
-70.7266
11
125.635
21
-70.73
0
LINE
8
BLACK
6
CONTINUOUS
10
125.635
20
-70.73
11
125.365
21
-70.73
0
LINE
8
BLACK
6
CONTINUOUS
10
125.365
20
-70.73
11
125.348
21
-70.7266
0
LINE
8
BLACK
6
CONTINUOUS
10
125.348
20
-70.7266
11
125.333
21
-70.7168
0
LINE
8
BLACK
6
CONTINUOUS
10
125.333
20
-70.7168
11
125.323
21
-70.7022
0
LINE
8
BLACK
6
CONTINUOUS
10
125.323
20
-70.7022
11
125.32
21
-70.685
0
LINE
8
BLACK
6
CONTINUOUS
10
125.32
20
-70.685
11
125.32
21
-70.315
0
LINE
8
BLACK
6
CONTINUOUS
10
125.32
20
-70.315
11
125.323
21
-70.2978
0
LINE
8
BLACK
6
CONTINUOUS
10
125.323
20
-70.2978
11
125.333
21
-70.2832
0
LINE
8
BLACK
6
CONTINUOUS
10
125.333
20
-70.2832
11
125.348
21
-70.2734
0
LINE
8
BLACK
6
CONTINUOUS
10
125.348
20
-70.2734
11
125.365
21
-70.27
0
LINE
8
BLACK
6
CONTINUOUS
10
125.365
20
-70.27
11
125.635
21
-70.27
0
LINE
8
BLACK
6
CONTINUOUS
10
125.635
20
-70.27
11
125.652
21
-70.2734
0
LINE
8
BLACK
6
CONTINUOUS
10
110.366
20
-68.5542
11
110.384
21
-68.5661
0
LINE
8
BLACK
6
CONTINUOUS
10
110.384
20
-68.5661
11
110.396
21
-68.584
0
LINE
8
BLACK
6
CONTINUOUS
10
110.396
20
-68.584
11
110.4
21
-68.605
0
LINE
8
BLACK
6
CONTINUOUS
10
110.4
20
-68.605
11
110.4
21
-69.045
0
LINE
8
BLACK
6
CONTINUOUS
10
110.4
20
-69.045
11
110.396
21
-69.066
0
LINE
8
BLACK
6
CONTINUOUS
10
110.396
20
-69.066
11
110.384
21
-69.0839
0
LINE
8
BLACK
6
CONTINUOUS
10
110.384
20
-69.0839
11
110.366
21
-69.0958
0
LINE
8
BLACK
6
CONTINUOUS
10
110.366
20
-69.0958
11
110.345
21
-69.1
0
LINE
8
BLACK
6
CONTINUOUS
10
110.345
20
-69.1
11
109.355
21
-69.1
0
LINE
8
BLACK
6
CONTINUOUS
10
109.355
20
-69.1
11
109.334
21
-69.0958
0
LINE
8
BLACK
6
CONTINUOUS
10
109.334
20
-69.0958
11
109.316
21
-69.0839
0
LINE
8
BLACK
6
CONTINUOUS
10
109.316
20
-69.0839
11
109.304
21
-69.066
0
LINE
8
BLACK
6
CONTINUOUS
10
109.304
20
-69.066
11
109.3
21
-69.045
0
LINE
8
BLACK
6
CONTINUOUS
10
109.3
20
-69.045
11
109.3
21
-68.605
0
LINE
8
BLACK
6
CONTINUOUS
10
109.3
20
-68.605
11
109.304
21
-68.584
0
LINE
8
BLACK
6
CONTINUOUS
10
109.304
20
-68.584
11
109.316
21
-68.5661
0
LINE
8
BLACK
6
CONTINUOUS
10
109.316
20
-68.5661
11
109.334
21
-68.5542
0
LINE
8
BLACK
6
CONTINUOUS
10
109.334
20
-68.5542
11
109.355
21
-68.55
0
LINE
8
BLACK
6
CONTINUOUS
10
109.355
20
-68.55
11
110.345
21
-68.55
0
LINE
8
BLACK
6
CONTINUOUS
10
110.345
20
-68.55
11
110.366
21
-68.5542
0
LINE
8
BLACK
6
CONTINUOUS
10
134.752
20
-68.3734
11
134.767
21
-68.3832
0
LINE
8
BLACK
6
CONTINUOUS
10
134.767
20
-68.3832
11
134.777
21
-68.3978
0
LINE
8
BLACK
6
CONTINUOUS
10
134.777
20
-68.3978
11
134.78
21
-68.415
0
LINE
8
BLACK
6
CONTINUOUS
10
134.78
20
-68.415
11
134.78
21
-68.685
0
LINE
8
BLACK
6
CONTINUOUS
10
134.78
20
-68.685
11
134.777
21
-68.7022
0
LINE
8
BLACK
6
CONTINUOUS
10
134.777
20
-68.7022
11
134.767
21
-68.7168
0
LINE
8
BLACK
6
CONTINUOUS
10
134.767
20
-68.7168
11
134.752
21
-68.7266
0
LINE
8
BLACK
6
CONTINUOUS
10
134.752
20
-68.7266
11
134.735
21
-68.73
0
LINE
8
BLACK
6
CONTINUOUS
10
134.735
20
-68.73
11
134.365
21
-68.73
0
LINE
8
BLACK
6
CONTINUOUS
10
134.365
20
-68.73
11
134.348
21
-68.7266
0
LINE
8
BLACK
6
CONTINUOUS
10
134.348
20
-68.7266
11
134.333
21
-68.7168
0
LINE
8
BLACK
6
CONTINUOUS
10
134.333
20
-68.7168
11
134.323
21
-68.7022
0
LINE
8
BLACK
6
CONTINUOUS
10
134.323
20
-68.7022
11
134.32
21
-68.685
0
LINE
8
BLACK
6
CONTINUOUS
10
134.32
20
-68.685
11
134.32
21
-68.415
0
LINE
8
BLACK
6
CONTINUOUS
10
134.32
20
-68.415
11
134.323
21
-68.3978
0
LINE
8
BLACK
6
CONTINUOUS
10
134.323
20
-68.3978
11
134.333
21
-68.3832
0
LINE
8
BLACK
6
CONTINUOUS
10
134.333
20
-68.3832
11
134.348
21
-68.3734
0
LINE
8
BLACK
6
CONTINUOUS
10
134.348
20
-68.3734
11
134.365
21
-68.37
0
LINE
8
BLACK
6
CONTINUOUS
10
134.365
20
-68.37
11
134.735
21
-68.37
0
LINE
8
BLACK
6
CONTINUOUS
10
134.735
20
-68.37
11
134.752
21
-68.3734
0
LINE
8
BLACK
6
CONTINUOUS
10
134.752
20
-67.4734
11
134.767
21
-67.4832
0
LINE
8
BLACK
6
CONTINUOUS
10
134.767
20
-67.4832
11
134.777
21
-67.4978
0
LINE
8
BLACK
6
CONTINUOUS
10
134.777
20
-67.4978
11
134.78
21
-67.515
0
LINE
8
BLACK
6
CONTINUOUS
10
134.78
20
-67.515
11
134.78
21
-67.785
0
LINE
8
BLACK
6
CONTINUOUS
10
134.78
20
-67.785
11
134.777
21
-67.8022
0
LINE
8
BLACK
6
CONTINUOUS
10
134.777
20
-67.8022
11
134.767
21
-67.8168
0
LINE
8
BLACK
6
CONTINUOUS
10
134.767
20
-67.8168
11
134.752
21
-67.8266
0
LINE
8
BLACK
6
CONTINUOUS
10
134.752
20
-67.8266
11
134.735
21
-67.83
0
LINE
8
BLACK
6
CONTINUOUS
10
134.735
20
-67.83
11
134.365
21
-67.83
0
LINE
8
BLACK
6
CONTINUOUS
10
134.365
20
-67.83
11
134.348
21
-67.8266
0
LINE
8
BLACK
6
CONTINUOUS
10
134.348
20
-67.8266
11
134.333
21
-67.8168
0
LINE
8
BLACK
6
CONTINUOUS
10
134.333
20
-67.8168
11
134.323
21
-67.8022
0
LINE
8
BLACK
6
CONTINUOUS
10
134.323
20
-67.8022
11
134.32
21
-67.785
0
LINE
8
BLACK
6
CONTINUOUS
10
134.32
20
-67.785
11
134.32
21
-67.515
0
LINE
8
BLACK
6
CONTINUOUS
10
134.32
20
-67.515
11
134.323
21
-67.4978
0
LINE
8
BLACK
6
CONTINUOUS
10
134.323
20
-67.4978
11
134.333
21
-67.4832
0
LINE
8
BLACK
6
CONTINUOUS
10
134.333
20
-67.4832
11
134.348
21
-67.4734
0
LINE
8
BLACK
6
CONTINUOUS
10
134.348
20
-67.4734
11
134.365
21
-67.47
0
LINE
8
BLACK
6
CONTINUOUS
10
134.365
20
-67.47
11
134.735
21
-67.47
0
LINE
8
BLACK
6
CONTINUOUS
10
134.735
20
-67.47
11
134.752
21
-67.4734
0
LINE
8
BLACK
6
CONTINUOUS
10
110.366
20
-66.9042
11
110.384
21
-66.9161
0
LINE
8
BLACK
6
CONTINUOUS
10
110.384
20
-66.9161
11
110.396
21
-66.934
0
LINE
8
BLACK
6
CONTINUOUS
10
110.396
20
-66.934
11
110.4
21
-66.955
0
LINE
8
BLACK
6
CONTINUOUS
10
110.4
20
-66.955
11
110.4
21
-67.395
0
LINE
8
BLACK
6
CONTINUOUS
10
110.4
20
-67.395
11
110.396
21
-67.416
0
LINE
8
BLACK
6
CONTINUOUS
10
110.396
20
-67.416
11
110.384
21
-67.4339
0
LINE
8
BLACK
6
CONTINUOUS
10
110.384
20
-67.4339
11
110.366
21
-67.4458
0
LINE
8
BLACK
6
CONTINUOUS
10
110.366
20
-67.4458
11
110.345
21
-67.45
0
LINE
8
BLACK
6
CONTINUOUS
10
110.345
20
-67.45
11
109.355
21
-67.45
0
LINE
8
BLACK
6
CONTINUOUS
10
109.355
20
-67.45
11
109.334
21
-67.4458
0
LINE
8
BLACK
6
CONTINUOUS
10
109.334
20
-67.4458
11
109.316
21
-67.4339
0
LINE
8
BLACK
6
CONTINUOUS
10
109.316
20
-67.4339
11
109.304
21
-67.416
0
LINE
8
BLACK
6
CONTINUOUS
10
109.304
20
-67.416
11
109.3
21
-67.395
0
LINE
8
BLACK
6
CONTINUOUS
10
109.3
20
-67.395
11
109.3
21
-66.955
0
LINE
8
BLACK
6
CONTINUOUS
10
109.3
20
-66.955
11
109.304
21
-66.934
0
LINE
8
BLACK
6
CONTINUOUS
10
109.304
20
-66.934
11
109.316
21
-66.9161
0
LINE
8
BLACK
6
CONTINUOUS
10
109.316
20
-66.9161
11
109.334
21
-66.9042
0
LINE
8
BLACK
6
CONTINUOUS
10
109.334
20
-66.9042
11
109.355
21
-66.9
0
LINE
8
BLACK
6
CONTINUOUS
10
109.355
20
-66.9
11
110.345
21
-66.9
0
LINE
8
BLACK
6
CONTINUOUS
10
110.345
20
-66.9
11
110.366
21
-66.9042
0
LINE
8
BLACK
6
CONTINUOUS
10
118.758
20
-66.9227
11
118.769
21
-66.9305
0
LINE
8
BLACK
6
CONTINUOUS
10
118.769
20
-66.9305
11
118.777
21
-66.9422
0
LINE
8
BLACK
6
CONTINUOUS
10
118.777
20
-66.9422
11
118.78
21
-66.956
0
LINE
8
BLACK
6
CONTINUOUS
10
118.78
20
-66.956
11
118.78
21
-67.244
0
LINE
8
BLACK
6
CONTINUOUS
10
118.78
20
-67.244
11
118.777
21
-67.2578
0
LINE
8
BLACK
6
CONTINUOUS
10
118.777
20
-67.2578
11
118.769
21
-67.2695
0
LINE
8
BLACK
6
CONTINUOUS
10
118.769
20
-67.2695
11
118.758
21
-67.2773
0
LINE
8
BLACK
6
CONTINUOUS
10
118.758
20
-67.2773
11
118.744
21
-67.28
0
LINE
8
BLACK
6
CONTINUOUS
10
118.744
20
-67.28
11
118.356
21
-67.28
0
LINE
8
BLACK
6
CONTINUOUS
10
118.356
20
-67.28
11
118.342
21
-67.2773
0
LINE
8
BLACK
6
CONTINUOUS
10
118.342
20
-67.2773
11
118.331
21
-67.2695
0
LINE
8
BLACK
6
CONTINUOUS
10
118.331
20
-67.2695
11
118.323
21
-67.2578
0
LINE
8
BLACK
6
CONTINUOUS
10
118.323
20
-67.2578
11
118.32
21
-67.244
0
LINE
8
BLACK
6
CONTINUOUS
10
118.32
20
-67.244
11
118.32
21
-66.956
0
LINE
8
BLACK
6
CONTINUOUS
10
118.32
20
-66.956
11
118.323
21
-66.9422
0
LINE
8
BLACK
6
CONTINUOUS
10
118.323
20
-66.9422
11
118.331
21
-66.9305
0
LINE
8
BLACK
6
CONTINUOUS
10
118.331
20
-66.9305
11
118.342
21
-66.9227
0
LINE
8
BLACK
6
CONTINUOUS
10
118.342
20
-66.9227
11
118.356
21
-66.92
0
LINE
8
BLACK
6
CONTINUOUS
10
118.356
20
-66.92
11
118.744
21
-66.92
0
LINE
8
BLACK
6
CONTINUOUS
10
118.744
20
-66.92
11
118.758
21
-66.9227
0
LINE
8
BLACK
6
CONTINUOUS
10
118.758
20
-66.0227
11
118.769
21
-66.0305
0
LINE
8
BLACK
6
CONTINUOUS
10
118.769
20
-66.0305
11
118.777
21
-66.0422
0
LINE
8
BLACK
6
CONTINUOUS
10
118.777
20
-66.0422
11
118.78
21
-66.056
0
LINE
8
BLACK
6
CONTINUOUS
10
118.78
20
-66.056
11
118.78
21
-66.344
0
LINE
8
BLACK
6
CONTINUOUS
10
118.78
20
-66.344
11
118.777
21
-66.3578
0
LINE
8
BLACK
6
CONTINUOUS
10
118.777
20
-66.3578
11
118.769
21
-66.3695
0
LINE
8
BLACK
6
CONTINUOUS
10
118.769
20
-66.3695
11
118.758
21
-66.3773
0
LINE
8
BLACK
6
CONTINUOUS
10
118.758
20
-66.3773
11
118.744
21
-66.38
0
LINE
8
BLACK
6
CONTINUOUS
10
118.744
20
-66.38
11
118.356
21
-66.38
0
LINE
8
BLACK
6
CONTINUOUS
10
118.356
20
-66.38
11
118.342
21
-66.3773
0
LINE
8
BLACK
6
CONTINUOUS
10
118.342
20
-66.3773
11
118.331
21
-66.3695
0
LINE
8
BLACK
6
CONTINUOUS
10
118.331
20
-66.3695
11
118.323
21
-66.3578
0
LINE
8
BLACK
6
CONTINUOUS
10
118.323
20
-66.3578
11
118.32
21
-66.344
0
LINE
8
BLACK
6
CONTINUOUS
10
118.32
20
-66.344
11
118.32
21
-66.056
0
LINE
8
BLACK
6
CONTINUOUS
10
118.32
20
-66.056
11
118.323
21
-66.0422
0
LINE
8
BLACK
6
CONTINUOUS
10
118.323
20
-66.0422
11
118.331
21
-66.0305
0
LINE
8
BLACK
6
CONTINUOUS
10
118.331
20
-66.0305
11
118.342
21
-66.0227
0
LINE
8
BLACK
6
CONTINUOUS
10
118.342
20
-66.0227
11
118.356
21
-66.02
0
LINE
8
BLACK
6
CONTINUOUS
10
118.356
20
-66.02
11
118.744
21
-66.02
0
LINE
8
BLACK
6
CONTINUOUS
10
118.744
20
-66.02
11
118.758
21
-66.0227
0
LINE
8
BLACK
6
CONTINUOUS
10
118.758
20
-64.5727
11
118.769
21
-64.5805
0
LINE
8
BLACK
6
CONTINUOUS
10
118.769
20
-64.5805
11
118.777
21
-64.5922
0
LINE
8
BLACK
6
CONTINUOUS
10
118.777
20
-64.5922
11
118.78
21
-64.606
0
LINE
8
BLACK
6
CONTINUOUS
10
118.78
20
-64.606
11
118.78
21
-64.894
0
LINE
8
BLACK
6
CONTINUOUS
10
118.78
20
-64.894
11
118.777
21
-64.9078
0
LINE
8
BLACK
6
CONTINUOUS
10
118.777
20
-64.9078
11
118.769
21
-64.9195
0
LINE
8
BLACK
6
CONTINUOUS
10
118.769
20
-64.9195
11
118.758
21
-64.9273
0
LINE
8
BLACK
6
CONTINUOUS
10
118.758
20
-64.9273
11
118.744
21
-64.93
0
LINE
8
BLACK
6
CONTINUOUS
10
118.744
20
-64.93
11
118.356
21
-64.93
0
LINE
8
BLACK
6
CONTINUOUS
10
118.356
20
-64.93
11
118.342
21
-64.9273
0
LINE
8
BLACK
6
CONTINUOUS
10
118.342
20
-64.9273
11
118.331
21
-64.9195
0
LINE
8
BLACK
6
CONTINUOUS
10
118.331
20
-64.9195
11
118.323
21
-64.9078
0
LINE
8
BLACK
6
CONTINUOUS
10
118.323
20
-64.9078
11
118.32
21
-64.894
0
LINE
8
BLACK
6
CONTINUOUS
10
118.32
20
-64.894
11
118.32
21
-64.606
0
LINE
8
BLACK
6
CONTINUOUS
10
118.32
20
-64.606
11
118.323
21
-64.5922
0
LINE
8
BLACK
6
CONTINUOUS
10
118.323
20
-64.5922
11
118.331
21
-64.5805
0
LINE
8
BLACK
6
CONTINUOUS
10
118.331
20
-64.5805
11
118.342
21
-64.5727
0
LINE
8
BLACK
6
CONTINUOUS
10
118.342
20
-64.5727
11
118.356
21
-64.57
0
LINE
8
BLACK
6
CONTINUOUS
10
118.356
20
-64.57
11
118.744
21
-64.57
0
LINE
8
BLACK
6
CONTINUOUS
10
118.744
20
-64.57
11
118.758
21
-64.5727
0
LINE
8
BLACK
6
CONTINUOUS
10
118.758
20
-63.6727
11
118.769
21
-63.6805
0
LINE
8
BLACK
6
CONTINUOUS
10
118.769
20
-63.6805
11
118.777
21
-63.6922
0
LINE
8
BLACK
6
CONTINUOUS
10
118.777
20
-63.6922
11
118.78
21
-63.706
0
LINE
8
BLACK
6
CONTINUOUS
10
118.78
20
-63.706
11
118.78
21
-63.994
0
LINE
8
BLACK
6
CONTINUOUS
10
118.78
20
-63.994
11
118.777
21
-64.0078
0
LINE
8
BLACK
6
CONTINUOUS
10
118.777
20
-64.0078
11
118.769
21
-64.0195
0
LINE
8
BLACK
6
CONTINUOUS
10
118.769
20
-64.0195
11
118.758
21
-64.0273
0
LINE
8
BLACK
6
CONTINUOUS
10
118.758
20
-64.0273
11
118.744
21
-64.03
0
LINE
8
BLACK
6
CONTINUOUS
10
118.744
20
-64.03
11
118.356
21
-64.03
0
LINE
8
BLACK
6
CONTINUOUS
10
118.356
20
-64.03
11
118.342
21
-64.0273
0
LINE
8
BLACK
6
CONTINUOUS
10
118.342
20
-64.0273
11
118.331
21
-64.0195
0
LINE
8
BLACK
6
CONTINUOUS
10
118.331
20
-64.0195
11
118.323
21
-64.0078
0
LINE
8
BLACK
6
CONTINUOUS
10
118.323
20
-64.0078
11
118.32
21
-63.994
0
LINE
8
BLACK
6
CONTINUOUS
10
118.32
20
-63.994
11
118.32
21
-63.706
0
LINE
8
BLACK
6
CONTINUOUS
10
118.32
20
-63.706
11
118.323
21
-63.6922
0
LINE
8
BLACK
6
CONTINUOUS
10
118.323
20
-63.6922
11
118.331
21
-63.6805
0
LINE
8
BLACK
6
CONTINUOUS
10
118.331
20
-63.6805
11
118.342
21
-63.6727
0
LINE
8
BLACK
6
CONTINUOUS
10
118.342
20
-63.6727
11
118.356
21
-63.67
0
LINE
8
BLACK
6
CONTINUOUS
10
118.356
20
-63.67
11
118.744
21
-63.67
0
LINE
8
BLACK
6
CONTINUOUS
10
118.744
20
-63.67
11
118.758
21
-63.6727
0
LINE
8
BLACK
6
CONTINUOUS
10
126.458
20
-61.4227
11
126.469
21
-61.4305
0
LINE
8
BLACK
6
CONTINUOUS
10
126.469
20
-61.4305
11
126.477
21
-61.4422
0
LINE
8
BLACK
6
CONTINUOUS
10
126.477
20
-61.4422
11
126.48
21
-61.456
0
LINE
8
BLACK
6
CONTINUOUS
10
126.48
20
-61.456
11
126.48
21
-61.844
0
LINE
8
BLACK
6
CONTINUOUS
10
126.48
20
-61.844
11
126.477
21
-61.8578
0
LINE
8
BLACK
6
CONTINUOUS
10
126.477
20
-61.8578
11
126.469
21
-61.8695
0
LINE
8
BLACK
6
CONTINUOUS
10
126.469
20
-61.8695
11
126.458
21
-61.8773
0
LINE
8
BLACK
6
CONTINUOUS
10
126.458
20
-61.8773
11
126.444
21
-61.88
0
LINE
8
BLACK
6
CONTINUOUS
10
126.444
20
-61.88
11
126.156
21
-61.88
0
LINE
8
BLACK
6
CONTINUOUS
10
126.156
20
-61.88
11
126.142
21
-61.8773
0
LINE
8
BLACK
6
CONTINUOUS
10
126.142
20
-61.8773
11
126.131
21
-61.8695
0
LINE
8
BLACK
6
CONTINUOUS
10
126.131
20
-61.8695
11
126.123
21
-61.8578
0
LINE
8
BLACK
6
CONTINUOUS
10
126.123
20
-61.8578
11
126.12
21
-61.844
0
LINE
8
BLACK
6
CONTINUOUS
10
126.12
20
-61.844
11
126.12
21
-61.456
0
LINE
8
BLACK
6
CONTINUOUS
10
126.12
20
-61.456
11
126.123
21
-61.4422
0
LINE
8
BLACK
6
CONTINUOUS
10
126.123
20
-61.4422
11
126.131
21
-61.4305
0
LINE
8
BLACK
6
CONTINUOUS
10
126.131
20
-61.4305
11
126.142
21
-61.4227
0
LINE
8
BLACK
6
CONTINUOUS
10
126.142
20
-61.4227
11
126.156
21
-61.42
0
LINE
8
BLACK
6
CONTINUOUS
10
126.156
20
-61.42
11
126.444
21
-61.42
0
LINE
8
BLACK
6
CONTINUOUS
10
126.444
20
-61.42
11
126.458
21
-61.4227
0
LINE
8
BLACK
6
CONTINUOUS
10
125.558
20
-61.4227
11
125.569
21
-61.4305
0
LINE
8
BLACK
6
CONTINUOUS
10
125.569
20
-61.4305
11
125.577
21
-61.4422
0
LINE
8
BLACK
6
CONTINUOUS
10
125.577
20
-61.4422
11
125.58
21
-61.456
0
LINE
8
BLACK
6
CONTINUOUS
10
125.58
20
-61.456
11
125.58
21
-61.844
0
LINE
8
BLACK
6
CONTINUOUS
10
125.58
20
-61.844
11
125.577
21
-61.8578
0
LINE
8
BLACK
6
CONTINUOUS
10
125.577
20
-61.8578
11
125.569
21
-61.8695
0
LINE
8
BLACK
6
CONTINUOUS
10
125.569
20
-61.8695
11
125.558
21
-61.8773
0
LINE
8
BLACK
6
CONTINUOUS
10
125.558
20
-61.8773
11
125.544
21
-61.88
0
LINE
8
BLACK
6
CONTINUOUS
10
125.544
20
-61.88
11
125.256
21
-61.88
0
LINE
8
BLACK
6
CONTINUOUS
10
125.256
20
-61.88
11
125.242
21
-61.8773
0
LINE
8
BLACK
6
CONTINUOUS
10
125.242
20
-61.8773
11
125.231
21
-61.8695
0
LINE
8
BLACK
6
CONTINUOUS
10
125.231
20
-61.8695
11
125.223
21
-61.8578
0
LINE
8
BLACK
6
CONTINUOUS
10
125.223
20
-61.8578
11
125.22
21
-61.844
0
LINE
8
BLACK
6
CONTINUOUS
10
125.22
20
-61.844
11
125.22
21
-61.456
0
LINE
8
BLACK
6
CONTINUOUS
10
125.22
20
-61.456
11
125.223
21
-61.4422
0
LINE
8
BLACK
6
CONTINUOUS
10
125.223
20
-61.4422
11
125.231
21
-61.4305
0
LINE
8
BLACK
6
CONTINUOUS
10
125.231
20
-61.4305
11
125.242
21
-61.4227
0
LINE
8
BLACK
6
CONTINUOUS
10
125.242
20
-61.4227
11
125.256
21
-61.42
0
LINE
8
BLACK
6
CONTINUOUS
10
125.256
20
-61.42
11
125.544
21
-61.42
0
LINE
8
BLACK
6
CONTINUOUS
10
125.544
20
-61.42
11
125.558
21
-61.4227
0
LINE
8
BLACK
6
CONTINUOUS
10
125.558
20
-60.3227
11
125.569
21
-60.3305
0
LINE
8
BLACK
6
CONTINUOUS
10
125.569
20
-60.3305
11
125.577
21
-60.3422
0
LINE
8
BLACK
6
CONTINUOUS
10
125.577
20
-60.3422
11
125.58
21
-60.356
0
LINE
8
BLACK
6
CONTINUOUS
10
125.58
20
-60.356
11
125.58
21
-60.744
0
LINE
8
BLACK
6
CONTINUOUS
10
125.58
20
-60.744
11
125.577
21
-60.7578
0
LINE
8
BLACK
6
CONTINUOUS
10
125.577
20
-60.7578
11
125.569
21
-60.7695
0
LINE
8
BLACK
6
CONTINUOUS
10
125.569
20
-60.7695
11
125.558
21
-60.7773
0
LINE
8
BLACK
6
CONTINUOUS
10
125.558
20
-60.7773
11
125.544
21
-60.78
0
LINE
8
BLACK
6
CONTINUOUS
10
125.544
20
-60.78
11
125.256
21
-60.78
0
LINE
8
BLACK
6
CONTINUOUS
10
125.256
20
-60.78
11
125.242
21
-60.7773
0
LINE
8
BLACK
6
CONTINUOUS
10
125.242
20
-60.7773
11
125.231
21
-60.7695
0
LINE
8
BLACK
6
CONTINUOUS
10
125.231
20
-60.7695
11
125.223
21
-60.7578
0
LINE
8
BLACK
6
CONTINUOUS
10
125.223
20
-60.7578
11
125.22
21
-60.744
0
LINE
8
BLACK
6
CONTINUOUS
10
125.22
20
-60.744
11
125.22
21
-60.356
0
LINE
8
BLACK
6
CONTINUOUS
10
125.22
20
-60.356
11
125.223
21
-60.3422
0
LINE
8
BLACK
6
CONTINUOUS
10
125.223
20
-60.3422
11
125.231
21
-60.3305
0
LINE
8
BLACK
6
CONTINUOUS
10
125.231
20
-60.3305
11
125.242
21
-60.3227
0
LINE
8
BLACK
6
CONTINUOUS
10
125.242
20
-60.3227
11
125.256
21
-60.32
0
LINE
8
BLACK
6
CONTINUOUS
10
125.256
20
-60.32
11
125.544
21
-60.32
0
LINE
8
BLACK
6
CONTINUOUS
10
125.544
20
-60.32
11
125.558
21
-60.3227
0
LINE
8
BLACK
6
CONTINUOUS
10
126.458
20
-60.3227
11
126.469
21
-60.3305
0
LINE
8
BLACK
6
CONTINUOUS
10
126.469
20
-60.3305
11
126.477
21
-60.3422
0
LINE
8
BLACK
6
CONTINUOUS
10
126.477
20
-60.3422
11
126.48
21
-60.356
0
LINE
8
BLACK
6
CONTINUOUS
10
126.48
20
-60.356
11
126.48
21
-60.744
0
LINE
8
BLACK
6
CONTINUOUS
10
126.48
20
-60.744
11
126.477
21
-60.7578
0
LINE
8
BLACK
6
CONTINUOUS
10
126.477
20
-60.7578
11
126.469
21
-60.7695
0
LINE
8
BLACK
6
CONTINUOUS
10
126.469
20
-60.7695
11
126.458
21
-60.7773
0
LINE
8
BLACK
6
CONTINUOUS
10
126.458
20
-60.7773
11
126.444
21
-60.78
0
LINE
8
BLACK
6
CONTINUOUS
10
126.444
20
-60.78
11
126.156
21
-60.78
0
LINE
8
BLACK
6
CONTINUOUS
10
126.156
20
-60.78
11
126.142
21
-60.7773
0
LINE
8
BLACK
6
CONTINUOUS
10
126.142
20
-60.7773
11
126.131
21
-60.7695
0
LINE
8
BLACK
6
CONTINUOUS
10
126.131
20
-60.7695
11
126.123
21
-60.7578
0
LINE
8
BLACK
6
CONTINUOUS
10
126.123
20
-60.7578
11
126.12
21
-60.744
0
LINE
8
BLACK
6
CONTINUOUS
10
126.12
20
-60.744
11
126.12
21
-60.356
0
LINE
8
BLACK
6
CONTINUOUS
10
126.12
20
-60.356
11
126.123
21
-60.3422
0
LINE
8
BLACK
6
CONTINUOUS
10
126.123
20
-60.3422
11
126.131
21
-60.3305
0
LINE
8
BLACK
6
CONTINUOUS
10
126.131
20
-60.3305
11
126.142
21
-60.3227
0
LINE
8
BLACK
6
CONTINUOUS
10
126.142
20
-60.3227
11
126.156
21
-60.32
0
LINE
8
BLACK
6
CONTINUOUS
10
126.156
20
-60.32
11
126.444
21
-60.32
0
LINE
8
BLACK
6
CONTINUOUS
10
126.444
20
-60.32
11
126.458
21
-60.3227
0
LINE
8
BLACK
6
CONTINUOUS
10
117.858
20
-59.9727
11
117.869
21
-59.9805
0
LINE
8
BLACK
6
CONTINUOUS
10
117.869
20
-59.9805
11
117.877
21
-59.9922
0
LINE
8
BLACK
6
CONTINUOUS
10
117.877
20
-59.9922
11
117.88
21
-60.006
0
LINE
8
BLACK
6
CONTINUOUS
10
117.88
20
-60.006
11
117.88
21
-60.394
0
LINE
8
BLACK
6
CONTINUOUS
10
117.88
20
-60.394
11
117.877
21
-60.4078
0
LINE
8
BLACK
6
CONTINUOUS
10
117.877
20
-60.4078
11
117.869
21
-60.4195
0
LINE
8
BLACK
6
CONTINUOUS
10
117.869
20
-60.4195
11
117.858
21
-60.4273
0
LINE
8
BLACK
6
CONTINUOUS
10
117.858
20
-60.4273
11
117.844
21
-60.43
0
LINE
8
BLACK
6
CONTINUOUS
10
117.844
20
-60.43
11
117.556
21
-60.43
0
LINE
8
BLACK
6
CONTINUOUS
10
117.556
20
-60.43
11
117.542
21
-60.4273
0
LINE
8
BLACK
6
CONTINUOUS
10
117.542
20
-60.4273
11
117.531
21
-60.4195
0
LINE
8
BLACK
6
CONTINUOUS
10
117.531
20
-60.4195
11
117.523
21
-60.4078
0
LINE
8
BLACK
6
CONTINUOUS
10
117.523
20
-60.4078
11
117.52
21
-60.394
0
LINE
8
BLACK
6
CONTINUOUS
10
117.52
20
-60.394
11
117.52
21
-60.006
0
LINE
8
BLACK
6
CONTINUOUS
10
117.52
20
-60.006
11
117.523
21
-59.9922
0
LINE
8
BLACK
6
CONTINUOUS
10
117.523
20
-59.9922
11
117.531
21
-59.9805
0
LINE
8
BLACK
6
CONTINUOUS
10
117.531
20
-59.9805
11
117.542
21
-59.9727
0
LINE
8
BLACK
6
CONTINUOUS
10
117.542
20
-59.9727
11
117.556
21
-59.97
0
LINE
8
BLACK
6
CONTINUOUS
10
117.556
20
-59.97
11
117.844
21
-59.97
0
LINE
8
BLACK
6
CONTINUOUS
10
117.844
20
-59.97
11
117.858
21
-59.9727
0
LINE
8
BLACK
6
CONTINUOUS
10
118.758
20
-59.9727
11
118.769
21
-59.9805
0
LINE
8
BLACK
6
CONTINUOUS
10
118.769
20
-59.9805
11
118.777
21
-59.9922
0
LINE
8
BLACK
6
CONTINUOUS
10
118.777
20
-59.9922
11
118.78
21
-60.006
0
LINE
8
BLACK
6
CONTINUOUS
10
118.78
20
-60.006
11
118.78
21
-60.394
0
LINE
8
BLACK
6
CONTINUOUS
10
118.78
20
-60.394
11
118.777
21
-60.4078
0
LINE
8
BLACK
6
CONTINUOUS
10
118.777
20
-60.4078
11
118.769
21
-60.4195
0
LINE
8
BLACK
6
CONTINUOUS
10
118.769
20
-60.4195
11
118.758
21
-60.4273
0
LINE
8
BLACK
6
CONTINUOUS
10
118.758
20
-60.4273
11
118.744
21
-60.43
0
LINE
8
BLACK
6
CONTINUOUS
10
118.744
20
-60.43
11
118.456
21
-60.43
0
LINE
8
BLACK
6
CONTINUOUS
10
118.456
20
-60.43
11
118.442
21
-60.4273
0
LINE
8
BLACK
6
CONTINUOUS
10
118.442
20
-60.4273
11
118.431
21
-60.4195
0
LINE
8
BLACK
6
CONTINUOUS
10
118.431
20
-60.4195
11
118.423
21
-60.4078
0
LINE
8
BLACK
6
CONTINUOUS
10
118.423
20
-60.4078
11
118.42
21
-60.394
0
LINE
8
BLACK
6
CONTINUOUS
10
118.42
20
-60.394
11
118.42
21
-60.006
0
LINE
8
BLACK
6
CONTINUOUS
10
118.42
20
-60.006
11
118.423
21
-59.9922
0
LINE
8
BLACK
6
CONTINUOUS
10
118.423
20
-59.9922
11
118.431
21
-59.9805
0
LINE
8
BLACK
6
CONTINUOUS
10
118.431
20
-59.9805
11
118.442
21
-59.9727
0
LINE
8
BLACK
6
CONTINUOUS
10
118.442
20
-59.9727
11
118.456
21
-59.97
0
LINE
8
BLACK
6
CONTINUOUS
10
118.456
20
-59.97
11
118.744
21
-59.97
0
LINE
8
BLACK
6
CONTINUOUS
10
118.744
20
-59.97
11
118.758
21
-59.9727
0
LINE
8
BLACK
6
CONTINUOUS
10
117.858
20
-58.9227
11
117.869
21
-58.9305
0
LINE
8
BLACK
6
CONTINUOUS
10
117.869
20
-58.9305
11
117.877
21
-58.9422
0
LINE
8
BLACK
6
CONTINUOUS
10
117.877
20
-58.9422
11
117.88
21
-58.956
0
LINE
8
BLACK
6
CONTINUOUS
10
117.88
20
-58.956
11
117.88
21
-59.344
0
LINE
8
BLACK
6
CONTINUOUS
10
117.88
20
-59.344
11
117.877
21
-59.3578
0
LINE
8
BLACK
6
CONTINUOUS
10
117.877
20
-59.3578
11
117.869
21
-59.3695
0
LINE
8
BLACK
6
CONTINUOUS
10
117.869
20
-59.3695
11
117.858
21
-59.3773
0
LINE
8
BLACK
6
CONTINUOUS
10
117.858
20
-59.3773
11
117.844
21
-59.38
0
LINE
8
BLACK
6
CONTINUOUS
10
117.844
20
-59.38
11
117.556
21
-59.38
0
LINE
8
BLACK
6
CONTINUOUS
10
117.556
20
-59.38
11
117.542
21
-59.3773
0
LINE
8
BLACK
6
CONTINUOUS
10
117.542
20
-59.3773
11
117.531
21
-59.3695
0
LINE
8
BLACK
6
CONTINUOUS
10
117.531
20
-59.3695
11
117.523
21
-59.3578
0
LINE
8
BLACK
6
CONTINUOUS
10
117.523
20
-59.3578
11
117.52
21
-59.344
0
LINE
8
BLACK
6
CONTINUOUS
10
117.52
20
-59.344
11
117.52
21
-58.956
0
LINE
8
BLACK
6
CONTINUOUS
10
117.52
20
-58.956
11
117.523
21
-58.9422
0
LINE
8
BLACK
6
CONTINUOUS
10
117.523
20
-58.9422
11
117.531
21
-58.9305
0
LINE
8
BLACK
6
CONTINUOUS
10
117.531
20
-58.9305
11
117.542
21
-58.9227
0
LINE
8
BLACK
6
CONTINUOUS
10
117.542
20
-58.9227
11
117.556
21
-58.92
0
LINE
8
BLACK
6
CONTINUOUS
10
117.556
20
-58.92
11
117.844
21
-58.92
0
LINE
8
BLACK
6
CONTINUOUS
10
117.844
20
-58.92
11
117.858
21
-58.9227
0
LINE
8
BLACK
6
CONTINUOUS
10
118.758
20
-58.9227
11
118.769
21
-58.9305
0
LINE
8
BLACK
6
CONTINUOUS
10
118.769
20
-58.9305
11
118.777
21
-58.9422
0
LINE
8
BLACK
6
CONTINUOUS
10
118.777
20
-58.9422
11
118.78
21
-58.956
0
LINE
8
BLACK
6
CONTINUOUS
10
118.78
20
-58.956
11
118.78
21
-59.344
0
LINE
8
BLACK
6
CONTINUOUS
10
118.78
20
-59.344
11
118.777
21
-59.3578
0
LINE
8
BLACK
6
CONTINUOUS
10
118.777
20
-59.3578
11
118.769
21
-59.3695
0
LINE
8
BLACK
6
CONTINUOUS
10
118.769
20
-59.3695
11
118.758
21
-59.3773
0
LINE
8
BLACK
6
CONTINUOUS
10
118.758
20
-59.3773
11
118.744
21
-59.38
0
LINE
8
BLACK
6
CONTINUOUS
10
118.744
20
-59.38
11
118.456
21
-59.38
0
LINE
8
BLACK
6
CONTINUOUS
10
118.456
20
-59.38
11
118.442
21
-59.3773
0
LINE
8
BLACK
6
CONTINUOUS
10
118.442
20
-59.3773
11
118.431
21
-59.3695
0
LINE
8
BLACK
6
CONTINUOUS
10
118.431
20
-59.3695
11
118.423
21
-59.3578
0
LINE
8
BLACK
6
CONTINUOUS
10
118.423
20
-59.3578
11
118.42
21
-59.344
0
LINE
8
BLACK
6
CONTINUOUS
10
118.42
20
-59.344
11
118.42
21
-58.956
0
LINE
8
BLACK
6
CONTINUOUS
10
118.42
20
-58.956
11
118.423
21
-58.9422
0
LINE
8
BLACK
6
CONTINUOUS
10
118.423
20
-58.9422
11
118.431
21
-58.9305
0
LINE
8
BLACK
6
CONTINUOUS
10
118.431
20
-58.9305
11
118.442
21
-58.9227
0
LINE
8
BLACK
6
CONTINUOUS
10
118.442
20
-58.9227
11
118.456
21
-58.92
0
LINE
8
BLACK
6
CONTINUOUS
10
118.456
20
-58.92
11
118.744
21
-58.92
0
LINE
8
BLACK
6
CONTINUOUS
10
118.744
20
-58.92
11
118.758
21
-58.9227
0
LINE
8
BLACK
6
CONTINUOUS
10
125.658
20
-57.2727
11
125.669
21
-57.2805
0
LINE
8
BLACK
6
CONTINUOUS
10
125.669
20
-57.2805
11
125.677
21
-57.2922
0
LINE
8
BLACK
6
CONTINUOUS
10
125.677
20
-57.2922
11
125.68
21
-57.306
0
LINE
8
BLACK
6
CONTINUOUS
10
125.68
20
-57.306
11
125.68
21
-57.594
0
LINE
8
BLACK
6
CONTINUOUS
10
125.68
20
-57.594
11
125.677
21
-57.6078
0
LINE
8
BLACK
6
CONTINUOUS
10
125.677
20
-57.6078
11
125.669
21
-57.6195
0
LINE
8
BLACK
6
CONTINUOUS
10
125.669
20
-57.6195
11
125.658
21
-57.6273
0
LINE
8
BLACK
6
CONTINUOUS
10
125.658
20
-57.6273
11
125.644
21
-57.63
0
LINE
8
BLACK
6
CONTINUOUS
10
125.644
20
-57.63
11
125.256
21
-57.63
0
LINE
8
BLACK
6
CONTINUOUS
10
125.256
20
-57.63
11
125.242
21
-57.6273
0
LINE
8
BLACK
6
CONTINUOUS
10
125.242
20
-57.6273
11
125.231
21
-57.6195
0
LINE
8
BLACK
6
CONTINUOUS
10
125.231
20
-57.6195
11
125.223
21
-57.6078
0
LINE
8
BLACK
6
CONTINUOUS
10
125.223
20
-57.6078
11
125.22
21
-57.594
0
LINE
8
BLACK
6
CONTINUOUS
10
125.22
20
-57.594
11
125.22
21
-57.306
0
LINE
8
BLACK
6
CONTINUOUS
10
125.22
20
-57.306
11
125.223
21
-57.2922
0
LINE
8
BLACK
6
CONTINUOUS
10
125.223
20
-57.2922
11
125.231
21
-57.2805
0
LINE
8
BLACK
6
CONTINUOUS
10
125.231
20
-57.2805
11
125.242
21
-57.2727
0
LINE
8
BLACK
6
CONTINUOUS
10
125.242
20
-57.2727
11
125.256
21
-57.27
0
LINE
8
BLACK
6
CONTINUOUS
10
125.256
20
-57.27
11
125.644
21
-57.27
0
LINE
8
BLACK
6
CONTINUOUS
10
125.644
20
-57.27
11
125.658
21
-57.2727
0
LINE
8
BLACK
6
CONTINUOUS
10
125.658
20
-56.3727
11
125.669
21
-56.3805
0
LINE
8
BLACK
6
CONTINUOUS
10
125.669
20
-56.3805
11
125.677
21
-56.3922
0
LINE
8
BLACK
6
CONTINUOUS
10
125.677
20
-56.3922
11
125.68
21
-56.406
0
LINE
8
BLACK
6
CONTINUOUS
10
125.68
20
-56.406
11
125.68
21
-56.694
0
LINE
8
BLACK
6
CONTINUOUS
10
125.68
20
-56.694
11
125.677
21
-56.7078
0
LINE
8
BLACK
6
CONTINUOUS
10
125.677
20
-56.7078
11
125.669
21
-56.7195
0
LINE
8
BLACK
6
CONTINUOUS
10
125.669
20
-56.7195
11
125.658
21
-56.7273
0
LINE
8
BLACK
6
CONTINUOUS
10
125.658
20
-56.7273
11
125.644
21
-56.73
0
LINE
8
BLACK
6
CONTINUOUS
10
125.644
20
-56.73
11
125.256
21
-56.73
0
LINE
8
BLACK
6
CONTINUOUS
10
125.256
20
-56.73
11
125.242
21
-56.7273
0
LINE
8
BLACK
6
CONTINUOUS
10
125.242
20
-56.7273
11
125.231
21
-56.7195
0
LINE
8
BLACK
6
CONTINUOUS
10
125.231
20
-56.7195
11
125.223
21
-56.7078
0
LINE
8
BLACK
6
CONTINUOUS
10
125.223
20
-56.7078
11
125.22
21
-56.694
0
LINE
8
BLACK
6
CONTINUOUS
10
125.22
20
-56.694
11
125.22
21
-56.406
0
LINE
8
BLACK
6
CONTINUOUS
10
125.22
20
-56.406
11
125.223
21
-56.3922
0
LINE
8
BLACK
6
CONTINUOUS
10
125.223
20
-56.3922
11
125.231
21
-56.3805
0
LINE
8
BLACK
6
CONTINUOUS
10
125.231
20
-56.3805
11
125.242
21
-56.3727
0
LINE
8
BLACK
6
CONTINUOUS
10
125.242
20
-56.3727
11
125.256
21
-56.37
0
LINE
8
BLACK
6
CONTINUOUS
10
125.256
20
-56.37
11
125.644
21
-56.37
0
LINE
8
BLACK
6
CONTINUOUS
10
125.644
20
-56.37
11
125.658
21
-56.3727
0
LINE
8
BLACK
6
CONTINUOUS
10
125.658
20
-55.6727
11
125.669
21
-55.6805
0
LINE
8
BLACK
6
CONTINUOUS
10
125.669
20
-55.6805
11
125.677
21
-55.6922
0
LINE
8
BLACK
6
CONTINUOUS
10
125.677
20
-55.6922
11
125.68
21
-55.706
0
LINE
8
BLACK
6
CONTINUOUS
10
125.68
20
-55.706
11
125.68
21
-55.994
0
LINE
8
BLACK
6
CONTINUOUS
10
125.68
20
-55.994
11
125.677
21
-56.0078
0
LINE
8
BLACK
6
CONTINUOUS
10
125.677
20
-56.0078
11
125.669
21
-56.0195
0
LINE
8
BLACK
6
CONTINUOUS
10
125.669
20
-56.0195
11
125.658
21
-56.0273
0
LINE
8
BLACK
6
CONTINUOUS
10
125.658
20
-56.0273
11
125.644
21
-56.03
0
LINE
8
BLACK
6
CONTINUOUS
10
125.644
20
-56.03
11
125.256
21
-56.03
0
LINE
8
BLACK
6
CONTINUOUS
10
125.256
20
-56.03
11
125.242
21
-56.0273
0
LINE
8
BLACK
6
CONTINUOUS
10
125.242
20
-56.0273
11
125.231
21
-56.0195
0
LINE
8
BLACK
6
CONTINUOUS
10
125.231
20
-56.0195
11
125.223
21
-56.0078
0
LINE
8
BLACK
6
CONTINUOUS
10
125.223
20
-56.0078
11
125.22
21
-55.994
0
LINE
8
BLACK
6
CONTINUOUS
10
125.22
20
-55.994
11
125.22
21
-55.706
0
LINE
8
BLACK
6
CONTINUOUS
10
125.22
20
-55.706
11
125.223
21
-55.6922
0
LINE
8
BLACK
6
CONTINUOUS
10
125.223
20
-55.6922
11
125.231
21
-55.6805
0
LINE
8
BLACK
6
CONTINUOUS
10
125.231
20
-55.6805
11
125.242
21
-55.6727
0
LINE
8
BLACK
6
CONTINUOUS
10
125.242
20
-55.6727
11
125.256
21
-55.67
0
LINE
8
BLACK
6
CONTINUOUS
10
125.256
20
-55.67
11
125.644
21
-55.67
0
LINE
8
BLACK
6
CONTINUOUS
10
125.644
20
-55.67
11
125.658
21
-55.6727
0
LINE
8
BLACK
6
CONTINUOUS
10
125.658
20
-54.7727
11
125.669
21
-54.7805
0
LINE
8
BLACK
6
CONTINUOUS
10
125.669
20
-54.7805
11
125.677
21
-54.7922
0
LINE
8
BLACK
6
CONTINUOUS
10
125.677
20
-54.7922
11
125.68
21
-54.806
0
LINE
8
BLACK
6
CONTINUOUS
10
125.68
20
-54.806
11
125.68
21
-55.094
0
LINE
8
BLACK
6
CONTINUOUS
10
125.68
20
-55.094
11
125.677
21
-55.1078
0
LINE
8
BLACK
6
CONTINUOUS
10
125.677
20
-55.1078
11
125.669
21
-55.1195
0
LINE
8
BLACK
6
CONTINUOUS
10
125.669
20
-55.1195
11
125.658
21
-55.1273
0
LINE
8
BLACK
6
CONTINUOUS
10
125.658
20
-55.1273
11
125.644
21
-55.13
0
LINE
8
BLACK
6
CONTINUOUS
10
125.644
20
-55.13
11
125.256
21
-55.13
0
LINE
8
BLACK
6
CONTINUOUS
10
125.256
20
-55.13
11
125.242
21
-55.1273
0
LINE
8
BLACK
6
CONTINUOUS
10
125.242
20
-55.1273
11
125.231
21
-55.1195
0
LINE
8
BLACK
6
CONTINUOUS
10
125.231
20
-55.1195
11
125.223
21
-55.1078
0
LINE
8
BLACK
6
CONTINUOUS
10
125.223
20
-55.1078
11
125.22
21
-55.094
0
LINE
8
BLACK
6
CONTINUOUS
10
125.22
20
-55.094
11
125.22
21
-54.806
0
LINE
8
BLACK
6
CONTINUOUS
10
125.22
20
-54.806
11
125.223
21
-54.7922
0
LINE
8
BLACK
6
CONTINUOUS
10
125.223
20
-54.7922
11
125.231
21
-54.7805
0
LINE
8
BLACK
6
CONTINUOUS
10
125.231
20
-54.7805
11
125.242
21
-54.7727
0
LINE
8
BLACK
6
CONTINUOUS
10
125.242
20
-54.7727
11
125.256
21
-54.77
0
LINE
8
BLACK
6
CONTINUOUS
10
125.256
20
-54.77
11
125.644
21
-54.77
0
LINE
8
BLACK
6
CONTINUOUS
10
125.644
20
-54.77
11
125.658
21
-54.7727
0
LINE
8
BLACK
6
CONTINUOUS
10
125.652
20
-54.0734
11
125.667
21
-54.0832
0
LINE
8
BLACK
6
CONTINUOUS
10
125.667
20
-54.0832
11
125.677
21
-54.0978
0
LINE
8
BLACK
6
CONTINUOUS
10
125.677
20
-54.0978
11
125.68
21
-54.115
0
LINE
8
BLACK
6
CONTINUOUS
10
125.68
20
-54.115
11
125.68
21
-54.385
0
LINE
8
BLACK
6
CONTINUOUS
10
125.68
20
-54.385
11
125.677
21
-54.4022
0
LINE
8
BLACK
6
CONTINUOUS
10
125.677
20
-54.4022
11
125.667
21
-54.4168
0
LINE
8
BLACK
6
CONTINUOUS
10
125.667
20
-54.4168
11
125.652
21
-54.4266
0
LINE
8
BLACK
6
CONTINUOUS
10
125.652
20
-54.4266
11
125.635
21
-54.43
0
LINE
8
BLACK
6
CONTINUOUS
10
125.635
20
-54.43
11
125.265
21
-54.43
0
LINE
8
BLACK
6
CONTINUOUS
10
125.265
20
-54.43
11
125.248
21
-54.4266
0
LINE
8
BLACK
6
CONTINUOUS
10
125.248
20
-54.4266
11
125.233
21
-54.4168
0
LINE
8
BLACK
6
CONTINUOUS
10
125.233
20
-54.4168
11
125.223
21
-54.4022
0
LINE
8
BLACK
6
CONTINUOUS
10
125.223
20
-54.4022
11
125.22
21
-54.385
0
LINE
8
BLACK
6
CONTINUOUS
10
125.22
20
-54.385
11
125.22
21
-54.115
0
LINE
8
BLACK
6
CONTINUOUS
10
125.22
20
-54.115
11
125.223
21
-54.0978
0
LINE
8
BLACK
6
CONTINUOUS
10
125.223
20
-54.0978
11
125.233
21
-54.0832
0
LINE
8
BLACK
6
CONTINUOUS
10
125.233
20
-54.0832
11
125.248
21
-54.0734
0
LINE
8
BLACK
6
CONTINUOUS
10
125.248
20
-54.0734
11
125.265
21
-54.07
0
LINE
8
BLACK
6
CONTINUOUS
10
125.265
20
-54.07
11
125.635
21
-54.07
0
LINE
8
BLACK
6
CONTINUOUS
10
125.635
20
-54.07
11
125.652
21
-54.0734
0
LINE
8
BLACK
6
CONTINUOUS
10
134.766
20
-53.4042
11
134.784
21
-53.4161
0
LINE
8
BLACK
6
CONTINUOUS
10
134.784
20
-53.4161
11
134.796
21
-53.434
0
LINE
8
BLACK
6
CONTINUOUS
10
134.796
20
-53.434
11
134.8
21
-53.455
0
LINE
8
BLACK
6
CONTINUOUS
10
134.8
20
-53.455
11
134.8
21
-53.895
0
LINE
8
BLACK
6
CONTINUOUS
10
134.8
20
-53.895
11
134.796
21
-53.916
0
LINE
8
BLACK
6
CONTINUOUS
10
134.796
20
-53.916
11
134.784
21
-53.9339
0
LINE
8
BLACK
6
CONTINUOUS
10
134.784
20
-53.9339
11
134.766
21
-53.9458
0
LINE
8
BLACK
6
CONTINUOUS
10
134.766
20
-53.9458
11
134.745
21
-53.95
0
LINE
8
BLACK
6
CONTINUOUS
10
134.745
20
-53.95
11
133.755
21
-53.95
0
LINE
8
BLACK
6
CONTINUOUS
10
133.755
20
-53.95
11
133.734
21
-53.9458
0
LINE
8
BLACK
6
CONTINUOUS
10
133.734
20
-53.9458
11
133.716
21
-53.9339
0
LINE
8
BLACK
6
CONTINUOUS
10
133.716
20
-53.9339
11
133.704
21
-53.916
0
LINE
8
BLACK
6
CONTINUOUS
10
133.704
20
-53.916
11
133.7
21
-53.895
0
LINE
8
BLACK
6
CONTINUOUS
10
133.7
20
-53.895
11
133.7
21
-53.455
0
LINE
8
BLACK
6
CONTINUOUS
10
133.7
20
-53.455
11
133.704
21
-53.434
0
LINE
8
BLACK
6
CONTINUOUS
10
133.704
20
-53.434
11
133.716
21
-53.4161
0
LINE
8
BLACK
6
CONTINUOUS
10
133.716
20
-53.4161
11
133.734
21
-53.4042
0
LINE
8
BLACK
6
CONTINUOUS
10
133.734
20
-53.4042
11
133.755
21
-53.4
0
LINE
8
BLACK
6
CONTINUOUS
10
133.755
20
-53.4
11
134.745
21
-53.4
0
LINE
8
BLACK
6
CONTINUOUS
10
134.745
20
-53.4
11
134.766
21
-53.4042
0
LINE
8
BLACK
6
CONTINUOUS
10
109.652
20
-53.2234
11
109.667
21
-53.2332
0
LINE
8
BLACK
6
CONTINUOUS
10
109.667
20
-53.2332
11
109.677
21
-53.2478
0
LINE
8
BLACK
6
CONTINUOUS
10
109.677
20
-53.2478
11
109.68
21
-53.265
0
LINE
8
BLACK
6
CONTINUOUS
10
109.68
20
-53.265
11
109.68
21
-53.535
0
LINE
8
BLACK
6
CONTINUOUS
10
109.68
20
-53.535
11
109.677
21
-53.5522
0
LINE
8
BLACK
6
CONTINUOUS
10
109.677
20
-53.5522
11
109.667
21
-53.5668
0
LINE
8
BLACK
6
CONTINUOUS
10
109.667
20
-53.5668
11
109.652
21
-53.5766
0
LINE
8
BLACK
6
CONTINUOUS
10
109.652
20
-53.5766
11
109.635
21
-53.58
0
LINE
8
BLACK
6
CONTINUOUS
10
109.635
20
-53.58
11
109.265
21
-53.58
0
LINE
8
BLACK
6
CONTINUOUS
10
109.265
20
-53.58
11
109.248
21
-53.5766
0
LINE
8
BLACK
6
CONTINUOUS
10
109.248
20
-53.5766
11
109.233
21
-53.5668
0
LINE
8
BLACK
6
CONTINUOUS
10
109.233
20
-53.5668
11
109.223
21
-53.5522
0
LINE
8
BLACK
6
CONTINUOUS
10
109.223
20
-53.5522
11
109.22
21
-53.535
0
LINE
8
BLACK
6
CONTINUOUS
10
109.22
20
-53.535
11
109.22
21
-53.265
0
LINE
8
BLACK
6
CONTINUOUS
10
109.22
20
-53.265
11
109.223
21
-53.2478
0
LINE
8
BLACK
6
CONTINUOUS
10
109.223
20
-53.2478
11
109.233
21
-53.2332
0
LINE
8
BLACK
6
CONTINUOUS
10
109.233
20
-53.2332
11
109.248
21
-53.2234
0
LINE
8
BLACK
6
CONTINUOUS
10
109.248
20
-53.2234
11
109.265
21
-53.22
0
LINE
8
BLACK
6
CONTINUOUS
10
109.265
20
-53.22
11
109.635
21
-53.22
0
LINE
8
BLACK
6
CONTINUOUS
10
109.635
20
-53.22
11
109.652
21
-53.2234
0
LINE
8
BLACK
6
CONTINUOUS
10
125.652
20
-53.1734
11
125.667
21
-53.1832
0
LINE
8
BLACK
6
CONTINUOUS
10
125.667
20
-53.1832
11
125.677
21
-53.1978
0
LINE
8
BLACK
6
CONTINUOUS
10
125.677
20
-53.1978
11
125.68
21
-53.215
0
LINE
8
BLACK
6
CONTINUOUS
10
125.68
20
-53.215
11
125.68
21
-53.485
0
LINE
8
BLACK
6
CONTINUOUS
10
125.68
20
-53.485
11
125.677
21
-53.5022
0
LINE
8
BLACK
6
CONTINUOUS
10
125.677
20
-53.5022
11
125.667
21
-53.5168
0
LINE
8
BLACK
6
CONTINUOUS
10
125.667
20
-53.5168
11
125.652
21
-53.5266
0
LINE
8
BLACK
6
CONTINUOUS
10
125.652
20
-53.5266
11
125.635
21
-53.53
0
LINE
8
BLACK
6
CONTINUOUS
10
125.635
20
-53.53
11
125.265
21
-53.53
0
LINE
8
BLACK
6
CONTINUOUS
10
125.265
20
-53.53
11
125.248
21
-53.5266
0
LINE
8
BLACK
6
CONTINUOUS
10
125.248
20
-53.5266
11
125.233
21
-53.5168
0
LINE
8
BLACK
6
CONTINUOUS
10
125.233
20
-53.5168
11
125.223
21
-53.5022
0
LINE
8
BLACK
6
CONTINUOUS
10
125.223
20
-53.5022
11
125.22
21
-53.485
0
LINE
8
BLACK
6
CONTINUOUS
10
125.22
20
-53.485
11
125.22
21
-53.215
0
LINE
8
BLACK
6
CONTINUOUS
10
125.22
20
-53.215
11
125.223
21
-53.1978
0
LINE
8
BLACK
6
CONTINUOUS
10
125.223
20
-53.1978
11
125.233
21
-53.1832
0
LINE
8
BLACK
6
CONTINUOUS
10
125.233
20
-53.1832
11
125.248
21
-53.1734
0
LINE
8
BLACK
6
CONTINUOUS
10
125.248
20
-53.1734
11
125.265
21
-53.17
0
LINE
8
BLACK
6
CONTINUOUS
10
125.265
20
-53.17
11
125.635
21
-53.17
0
LINE
8
BLACK
6
CONTINUOUS
10
125.635
20
-53.17
11
125.652
21
-53.1734
0
LINE
8
BLACK
6
CONTINUOUS
10
109.652
20
-52.3234
11
109.667
21
-52.3332
0
LINE
8
BLACK
6
CONTINUOUS
10
109.667
20
-52.3332
11
109.677
21
-52.3478
0
LINE
8
BLACK
6
CONTINUOUS
10
109.677
20
-52.3478
11
109.68
21
-52.365
0
LINE
8
BLACK
6
CONTINUOUS
10
109.68
20
-52.365
11
109.68
21
-52.635
0
LINE
8
BLACK
6
CONTINUOUS
10
109.68
20
-52.635
11
109.677
21
-52.6522
0
LINE
8
BLACK
6
CONTINUOUS
10
109.677
20
-52.6522
11
109.667
21
-52.6668
0
LINE
8
BLACK
6
CONTINUOUS
10
109.667
20
-52.6668
11
109.652
21
-52.6766
0
LINE
8
BLACK
6
CONTINUOUS
10
109.652
20
-52.6766
11
109.635
21
-52.68
0
LINE
8
BLACK
6
CONTINUOUS
10
109.635
20
-52.68
11
109.265
21
-52.68
0
LINE
8
BLACK
6
CONTINUOUS
10
109.265
20
-52.68
11
109.248
21
-52.6766
0
LINE
8
BLACK
6
CONTINUOUS
10
109.248
20
-52.6766
11
109.233
21
-52.6668
0
LINE
8
BLACK
6
CONTINUOUS
10
109.233
20
-52.6668
11
109.223
21
-52.6522
0
LINE
8
BLACK
6
CONTINUOUS
10
109.223
20
-52.6522
11
109.22
21
-52.635
0
LINE
8
BLACK
6
CONTINUOUS
10
109.22
20
-52.635
11
109.22
21
-52.365
0
LINE
8
BLACK
6
CONTINUOUS
10
109.22
20
-52.365
11
109.223
21
-52.3478
0
LINE
8
BLACK
6
CONTINUOUS
10
109.223
20
-52.3478
11
109.233
21
-52.3332
0
LINE
8
BLACK
6
CONTINUOUS
10
109.233
20
-52.3332
11
109.248
21
-52.3234
0
LINE
8
BLACK
6
CONTINUOUS
10
109.248
20
-52.3234
11
109.265
21
-52.32
0
LINE
8
BLACK
6
CONTINUOUS
10
109.265
20
-52.32
11
109.635
21
-52.32
0
LINE
8
BLACK
6
CONTINUOUS
10
109.635
20
-52.32
11
109.652
21
-52.3234
0
LINE
8
BLACK
6
CONTINUOUS
10
134.766
20
-51.7542
11
134.784
21
-51.7661
0
LINE
8
BLACK
6
CONTINUOUS
10
134.784
20
-51.7661
11
134.796
21
-51.784
0
LINE
8
BLACK
6
CONTINUOUS
10
134.796
20
-51.784
11
134.8
21
-51.805
0
LINE
8
BLACK
6
CONTINUOUS
10
134.8
20
-51.805
11
134.8
21
-52.245
0
LINE
8
BLACK
6
CONTINUOUS
10
134.8
20
-52.245
11
134.796
21
-52.266
0
LINE
8
BLACK
6
CONTINUOUS
10
134.796
20
-52.266
11
134.784
21
-52.2839
0
LINE
8
BLACK
6
CONTINUOUS
10
134.784
20
-52.2839
11
134.766
21
-52.2958
0
LINE
8
BLACK
6
CONTINUOUS
10
134.766
20
-52.2958
11
134.745
21
-52.3
0
LINE
8
BLACK
6
CONTINUOUS
10
134.745
20
-52.3
11
133.755
21
-52.3
0
LINE
8
BLACK
6
CONTINUOUS
10
133.755
20
-52.3
11
133.734
21
-52.2958
0
LINE
8
BLACK
6
CONTINUOUS
10
133.734
20
-52.2958
11
133.716
21
-52.2839
0
LINE
8
BLACK
6
CONTINUOUS
10
133.716
20
-52.2839
11
133.704
21
-52.266
0
LINE
8
BLACK
6
CONTINUOUS
10
133.704
20
-52.266
11
133.7
21
-52.245
0
LINE
8
BLACK
6
CONTINUOUS
10
133.7
20
-52.245
11
133.7
21
-51.805
0
LINE
8
BLACK
6
CONTINUOUS
10
133.7
20
-51.805
11
133.704
21
-51.784
0
LINE
8
BLACK
6
CONTINUOUS
10
133.704
20
-51.784
11
133.716
21
-51.7661
0
LINE
8
BLACK
6
CONTINUOUS
10
133.716
20
-51.7661
11
133.734
21
-51.7542
0
LINE
8
BLACK
6
CONTINUOUS
10
133.734
20
-51.7542
11
133.755
21
-51.75
0
LINE
8
BLACK
6
CONTINUOUS
10
133.755
20
-51.75
11
134.745
21
-51.75
0
LINE
8
BLACK
6
CONTINUOUS
10
134.745
20
-51.75
11
134.766
21
-51.7542
  0
ENDSEC
  0
EOF
