  0
SECTION
  2
HEADER
  9
$ANGBASE
  50
0.0
  9
$ANGDIR
  70
1
  9
$MEASUREMENT
  70
1
  0
ENDSEC
  0
SECTION
  2
TABLES
  0
TABLE
  2
LTYPE
  70
4
  0
LTYPE
  5
40F
  2
CONTINUOUS
  70
0
  3
Solid line
  72
65
  73
0
  40
0.0
  0
LTYPE
  5
410
  2
DASHDOT
 70
0
  3
Dash Dot ____ _ ____ _
 72
65
 73
4
 40
2.0
 49
1.25
 49
-0.25
 49
0.25
 49
-0.25
  0
LTYPE
  5
411
  2
DASHED
 70
0
  3
Dashed __ __ __ __ __
 72
65
 73
2
 40
0.75
 49
0.5
 49
-0.25
  0
LTYPE
  5
43B
  2
DOTTED
 70
0
  3
Dotted .  .  .  .
 72
65
 73
2
 40
0.2
 49
0.0
 49
-0.2
  0
ENDTAB
  0
TABLE
  2
STYLE
  70
4
  0
STYLE
  2
KICAD
  70
0
  40
0
  41
1
  42
1
  50
0
  71
0
  3
isocp.shx
  0
STYLE
  2
KICADB
  70
0
  40
0
  41
1
  42
1
  50
0
  71
0
  3
isocp.shx
  0
STYLE
  2
KICADI
  70
0
  40
0
  41
1
  42
1
  50
15
  71
0
  3
isocp.shx
  0
STYLE
  2
KICADBI
  70
0
  40
0
  41
1
  42
1
  50
15
  71
0
  3
isocp.shx
  0
ENDTAB
  0
TABLE
  2
LAYER
  70
1
  0
LAYER
  2
BLACK
  70
0
  62
7
  6
CONTINUOUS
  0
ENDTAB
  0
ENDSEC
  0
SECTION
  2
ENTITIES
0
LINE
8
BLACK
6
CONTINUOUS
10
102.684
20
-110.008
11
102.371
21
-109.959
0
LINE
8
BLACK
6
CONTINUOUS
10
102.371
20
-109.959
11
102.065
21
-109.877
0
LINE
8
BLACK
6
CONTINUOUS
10
102.065
20
-109.877
11
101.77
21
-109.763
0
LINE
8
BLACK
6
CONTINUOUS
10
101.77
20
-109.763
11
101.488
21
-109.62
0
LINE
8
BLACK
6
CONTINUOUS
10
101.488
20
-109.62
11
101.222
21
-109.447
0
LINE
8
BLACK
6
CONTINUOUS
10
101.222
20
-109.447
11
100.976
21
-109.248
0
LINE
8
BLACK
6
CONTINUOUS
10
100.976
20
-109.248
11
100.752
21
-109.024
0
LINE
8
BLACK
6
CONTINUOUS
10
100.752
20
-109.024
11
100.553
21
-108.778
0
LINE
8
BLACK
6
CONTINUOUS
10
100.553
20
-108.778
11
100.38
21
-108.513
0
LINE
8
BLACK
6
CONTINUOUS
10
100.38
20
-108.513
11
100.237
21
-108.23
0
LINE
8
BLACK
6
CONTINUOUS
10
100.237
20
-108.23
11
100.123
21
-107.935
0
LINE
8
BLACK
6
CONTINUOUS
10
100.123
20
-107.935
11
100.041
21
-107.629
0
LINE
8
BLACK
6
CONTINUOUS
10
100.041
20
-107.629
11
99.9916
21
-107.316
0
LINE
8
BLACK
6
CONTINUOUS
10
99.9916
20
-107.316
11
99.975
21
-107
0
LINE
8
BLACK
6
CONTINUOUS
10
99.975
20
-107
11
99.975
21
-53
0
LINE
8
BLACK
6
CONTINUOUS
10
99.975
20
-53
11
99.9916
21
-52.6838
0
LINE
8
BLACK
6
CONTINUOUS
10
99.9916
20
-52.6838
11
100.041
21
-52.3711
0
LINE
8
BLACK
6
CONTINUOUS
10
100.041
20
-52.3711
11
100.123
21
-52.0652
0
LINE
8
BLACK
6
CONTINUOUS
10
100.123
20
-52.0652
11
100.237
21
-51.7696
0
LINE
8
BLACK
6
CONTINUOUS
10
100.237
20
-51.7696
11
100.38
21
-51.4875
0
LINE
8
BLACK
6
CONTINUOUS
10
100.38
20
-51.4875
11
100.553
21
-51.222
0
LINE
8
BLACK
6
CONTINUOUS
10
100.553
20
-51.222
11
100.752
21
-50.9759
0
LINE
8
BLACK
6
CONTINUOUS
10
100.752
20
-50.9759
11
100.976
21
-50.752
0
LINE
8
BLACK
6
CONTINUOUS
10
100.976
20
-50.752
11
101.222
21
-50.5527
0
LINE
8
BLACK
6
CONTINUOUS
10
101.222
20
-50.5527
11
101.488
21
-50.3803
0
LINE
8
BLACK
6
CONTINUOUS
10
101.488
20
-50.3803
11
101.77
21
-50.2365
0
LINE
8
BLACK
6
CONTINUOUS
10
101.77
20
-50.2365
11
102.065
21
-50.1231
0
LINE
8
BLACK
6
CONTINUOUS
10
102.065
20
-50.1231
11
102.371
21
-50.0411
0
LINE
8
BLACK
6
CONTINUOUS
10
102.371
20
-50.0411
11
102.684
21
-49.9916
0
LINE
8
BLACK
6
CONTINUOUS
10
102.684
20
-49.9916
11
103
21
-49.975
0
LINE
8
BLACK
6
CONTINUOUS
10
103
20
-49.975
11
141
21
-49.975
0
LINE
8
BLACK
6
CONTINUOUS
10
141
20
-49.975
11
141.316
21
-49.9916
0
LINE
8
BLACK
6
CONTINUOUS
10
141.316
20
-49.9916
11
141.629
21
-50.0411
0
LINE
8
BLACK
6
CONTINUOUS
10
141.629
20
-50.0411
11
141.935
21
-50.1231
0
LINE
8
BLACK
6
CONTINUOUS
10
141.935
20
-50.1231
11
142.23
21
-50.2365
0
LINE
8
BLACK
6
CONTINUOUS
10
142.23
20
-50.2365
11
142.513
21
-50.3803
0
LINE
8
BLACK
6
CONTINUOUS
10
142.513
20
-50.3803
11
142.778
21
-50.5527
0
LINE
8
BLACK
6
CONTINUOUS
10
142.778
20
-50.5527
11
143.024
21
-50.752
0
LINE
8
BLACK
6
CONTINUOUS
10
143.024
20
-50.752
11
143.248
21
-50.9759
0
LINE
8
BLACK
6
CONTINUOUS
10
143.248
20
-50.9759
11
143.447
21
-51.222
0
LINE
8
BLACK
6
CONTINUOUS
10
143.447
20
-51.222
11
143.62
21
-51.4875
0
LINE
8
BLACK
6
CONTINUOUS
10
143.62
20
-51.4875
11
143.763
21
-51.7696
0
LINE
8
BLACK
6
CONTINUOUS
10
143.763
20
-51.7696
11
143.877
21
-52.0652
0
LINE
8
BLACK
6
CONTINUOUS
10
143.877
20
-52.0652
11
143.959
21
-52.3711
0
LINE
8
BLACK
6
CONTINUOUS
10
143.959
20
-52.3711
11
144.008
21
-52.6838
0
LINE
8
BLACK
6
CONTINUOUS
10
144.008
20
-52.6838
11
144.025
21
-53
0
LINE
8
BLACK
6
CONTINUOUS
10
144.025
20
-53
11
144.025
21
-107
0
LINE
8
BLACK
6
CONTINUOUS
10
144.025
20
-107
11
144.008
21
-107.316
0
LINE
8
BLACK
6
CONTINUOUS
10
144.008
20
-107.316
11
143.959
21
-107.629
0
LINE
8
BLACK
6
CONTINUOUS
10
143.959
20
-107.629
11
143.877
21
-107.935
0
LINE
8
BLACK
6
CONTINUOUS
10
143.877
20
-107.935
11
143.763
21
-108.23
0
LINE
8
BLACK
6
CONTINUOUS
10
143.763
20
-108.23
11
143.62
21
-108.513
0
LINE
8
BLACK
6
CONTINUOUS
10
143.62
20
-108.513
11
143.447
21
-108.778
0
LINE
8
BLACK
6
CONTINUOUS
10
143.447
20
-108.778
11
143.248
21
-109.024
0
LINE
8
BLACK
6
CONTINUOUS
10
143.248
20
-109.024
11
143.024
21
-109.248
0
LINE
8
BLACK
6
CONTINUOUS
10
143.024
20
-109.248
11
142.778
21
-109.447
0
LINE
8
BLACK
6
CONTINUOUS
10
142.778
20
-109.447
11
142.513
21
-109.62
0
LINE
8
BLACK
6
CONTINUOUS
10
142.513
20
-109.62
11
142.23
21
-109.763
0
LINE
8
BLACK
6
CONTINUOUS
10
142.23
20
-109.763
11
141.935
21
-109.877
0
LINE
8
BLACK
6
CONTINUOUS
10
141.935
20
-109.877
11
141.629
21
-109.959
0
LINE
8
BLACK
6
CONTINUOUS
10
141.629
20
-109.959
11
141.316
21
-110.008
0
LINE
8
BLACK
6
CONTINUOUS
10
141.316
20
-110.008
11
141
21
-110.025
0
LINE
8
BLACK
6
CONTINUOUS
10
141
20
-110.025
11
103
21
-110.025
0
LINE
8
BLACK
6
CONTINUOUS
10
103
20
-110.025
11
102.684
21
-110.008
0
LINE
8
BLACK
6
CONTINUOUS
10
102.991
20
-50.0214
11
102.689
21
-50.0372
0
LINE
8
BLACK
6
CONTINUOUS
10
102.689
20
-50.0372
11
102.381
21
-50.086
0
LINE
8
BLACK
6
CONTINUOUS
10
102.381
20
-50.086
11
102.079
21
-50.1667
0
LINE
8
BLACK
6
CONTINUOUS
10
102.079
20
-50.1667
11
101.788
21
-50.2785
0
LINE
8
BLACK
6
CONTINUOUS
10
101.788
20
-50.2785
11
101.51
21
-50.42
0
LINE
8
BLACK
6
CONTINUOUS
10
101.51
20
-50.42
11
101.249
21
-50.5899
0
LINE
8
BLACK
6
CONTINUOUS
10
101.249
20
-50.5899
11
101.007
21
-50.7861
0
LINE
8
BLACK
6
CONTINUOUS
10
101.007
20
-50.7861
11
100.786
21
-51.0066
0
LINE
8
BLACK
6
CONTINUOUS
10
100.786
20
-51.0066
11
100.59
21
-51.2489
0
LINE
8
BLACK
6
CONTINUOUS
10
100.59
20
-51.2489
11
100.42
21
-51.5105
0
LINE
8
BLACK
6
CONTINUOUS
10
100.42
20
-51.5105
11
100.278
21
-51.7883
0
LINE
8
BLACK
6
CONTINUOUS
10
100.278
20
-51.7883
11
100.167
21
-52.0794
0
LINE
8
BLACK
6
CONTINUOUS
10
100.167
20
-52.0794
11
100.086
21
-52.3806
0
LINE
8
BLACK
6
CONTINUOUS
10
100.086
20
-52.3806
11
100.037
21
-52.6886
0
LINE
8
BLACK
6
CONTINUOUS
10
100.037
20
-52.6886
11
100.021
21
-52.9912
0
LINE
8
BLACK
6
CONTINUOUS
10
100.021
20
-52.9912
11
100.025
21
-53
0
LINE
8
BLACK
6
CONTINUOUS
10
100.025
20
-53
11
100.025
21
-107
0
LINE
8
BLACK
6
CONTINUOUS
10
100.025
20
-107
11
100.021
21
-107.009
0
LINE
8
BLACK
6
CONTINUOUS
10
100.021
20
-107.009
11
100.037
21
-107.311
0
LINE
8
BLACK
6
CONTINUOUS
10
100.037
20
-107.311
11
100.086
21
-107.619
0
LINE
8
BLACK
6
CONTINUOUS
10
100.086
20
-107.619
11
100.167
21
-107.921
0
LINE
8
BLACK
6
CONTINUOUS
10
100.167
20
-107.921
11
100.278
21
-108.212
0
LINE
8
BLACK
6
CONTINUOUS
10
100.278
20
-108.212
11
100.42
21
-108.49
0
LINE
8
BLACK
6
CONTINUOUS
10
100.42
20
-108.49
11
100.59
21
-108.751
0
LINE
8
BLACK
6
CONTINUOUS
10
100.59
20
-108.751
11
100.786
21
-108.993
0
LINE
8
BLACK
6
CONTINUOUS
10
100.786
20
-108.993
11
101.007
21
-109.214
0
LINE
8
BLACK
6
CONTINUOUS
10
101.007
20
-109.214
11
101.249
21
-109.41
0
LINE
8
BLACK
6
CONTINUOUS
10
101.249
20
-109.41
11
101.51
21
-109.58
0
LINE
8
BLACK
6
CONTINUOUS
10
101.51
20
-109.58
11
101.788
21
-109.722
0
LINE
8
BLACK
6
CONTINUOUS
10
101.788
20
-109.722
11
102.079
21
-109.833
0
LINE
8
BLACK
6
CONTINUOUS
10
102.079
20
-109.833
11
102.381
21
-109.914
0
LINE
8
BLACK
6
CONTINUOUS
10
102.381
20
-109.914
11
102.689
21
-109.963
0
LINE
8
BLACK
6
CONTINUOUS
10
102.689
20
-109.963
11
102.991
21
-109.979
0
LINE
8
BLACK
6
CONTINUOUS
10
102.991
20
-109.979
11
103
21
-109.975
0
LINE
8
BLACK
6
CONTINUOUS
10
103
20
-109.975
11
141
21
-109.975
0
LINE
8
BLACK
6
CONTINUOUS
10
141
20
-109.975
11
141.009
21
-109.979
0
LINE
8
BLACK
6
CONTINUOUS
10
141.009
20
-109.979
11
141.311
21
-109.963
0
LINE
8
BLACK
6
CONTINUOUS
10
141.311
20
-109.963
11
141.619
21
-109.914
0
LINE
8
BLACK
6
CONTINUOUS
10
141.619
20
-109.914
11
141.921
21
-109.833
0
LINE
8
BLACK
6
CONTINUOUS
10
141.921
20
-109.833
11
142.212
21
-109.722
0
LINE
8
BLACK
6
CONTINUOUS
10
142.212
20
-109.722
11
142.49
21
-109.58
0
LINE
8
BLACK
6
CONTINUOUS
10
142.49
20
-109.58
11
142.751
21
-109.41
0
LINE
8
BLACK
6
CONTINUOUS
10
142.751
20
-109.41
11
142.993
21
-109.214
0
LINE
8
BLACK
6
CONTINUOUS
10
142.993
20
-109.214
11
143.214
21
-108.993
0
LINE
8
BLACK
6
CONTINUOUS
10
143.214
20
-108.993
11
143.41
21
-108.751
0
LINE
8
BLACK
6
CONTINUOUS
10
143.41
20
-108.751
11
143.58
21
-108.49
0
LINE
8
BLACK
6
CONTINUOUS
10
143.58
20
-108.49
11
143.722
21
-108.212
0
LINE
8
BLACK
6
CONTINUOUS
10
143.722
20
-108.212
11
143.833
21
-107.921
0
LINE
8
BLACK
6
CONTINUOUS
10
143.833
20
-107.921
11
143.914
21
-107.619
0
LINE
8
BLACK
6
CONTINUOUS
10
143.914
20
-107.619
11
143.963
21
-107.311
0
LINE
8
BLACK
6
CONTINUOUS
10
143.963
20
-107.311
11
143.979
21
-107.009
0
LINE
8
BLACK
6
CONTINUOUS
10
143.979
20
-107.009
11
143.975
21
-107
0
LINE
8
BLACK
6
CONTINUOUS
10
143.975
20
-107
11
143.975
21
-53
0
LINE
8
BLACK
6
CONTINUOUS
10
143.975
20
-53
11
143.979
21
-52.9912
0
LINE
8
BLACK
6
CONTINUOUS
10
143.979
20
-52.9912
11
143.963
21
-52.6886
0
LINE
8
BLACK
6
CONTINUOUS
10
143.963
20
-52.6886
11
143.914
21
-52.3806
0
LINE
8
BLACK
6
CONTINUOUS
10
143.914
20
-52.3806
11
143.833
21
-52.0794
0
LINE
8
BLACK
6
CONTINUOUS
10
143.833
20
-52.0794
11
143.722
21
-51.7883
0
LINE
8
BLACK
6
CONTINUOUS
10
143.722
20
-51.7883
11
143.58
21
-51.5105
0
LINE
8
BLACK
6
CONTINUOUS
10
143.58
20
-51.5105
11
143.41
21
-51.2489
0
LINE
8
BLACK
6
CONTINUOUS
10
143.41
20
-51.2489
11
143.214
21
-51.0066
0
LINE
8
BLACK
6
CONTINUOUS
10
143.214
20
-51.0066
11
142.993
21
-50.7861
0
LINE
8
BLACK
6
CONTINUOUS
10
142.993
20
-50.7861
11
142.751
21
-50.5899
0
LINE
8
BLACK
6
CONTINUOUS
10
142.751
20
-50.5899
11
142.49
21
-50.42
0
LINE
8
BLACK
6
CONTINUOUS
10
142.49
20
-50.42
11
142.212
21
-50.2785
0
LINE
8
BLACK
6
CONTINUOUS
10
142.212
20
-50.2785
11
141.921
21
-50.1667
0
LINE
8
BLACK
6
CONTINUOUS
10
141.921
20
-50.1667
11
141.619
21
-50.086
0
LINE
8
BLACK
6
CONTINUOUS
10
141.619
20
-50.086
11
141.311
21
-50.0372
0
LINE
8
BLACK
6
CONTINUOUS
10
141.311
20
-50.0372
11
141.009
21
-50.0214
0
LINE
8
BLACK
6
CONTINUOUS
10
141.009
20
-50.0214
11
141
21
-50.025
0
LINE
8
BLACK
6
CONTINUOUS
10
141
20
-50.025
11
103
21
-50.025
0
LINE
8
BLACK
6
CONTINUOUS
10
103
20
-50.025
11
102.991
21
-50.0214
  0
ENDSEC
  0
EOF
