  0
SECTION
  2
HEADER
  9
$ANGBASE
  50
0.0
  9
$ANGDIR
  70
1
  9
$MEASUREMENT
  70
1
  0
ENDSEC
  0
SECTION
  2
TABLES
  0
TABLE
  2
LTYPE
  70
4
  0
LTYPE
  5
40F
  2
CONTINUOUS
  70
0
  3
Solid line
  72
65
  73
0
  40
0.0
  0
LTYPE
  5
410
  2
DASHDOT
 70
0
  3
Dash Dot ____ _ ____ _
 72
65
 73
4
 40
2.0
 49
1.25
 49
-0.25
 49
0.25
 49
-0.25
  0
LTYPE
  5
411
  2
DASHED
 70
0
  3
Dashed __ __ __ __ __
 72
65
 73
2
 40
0.75
 49
0.5
 49
-0.25
  0
LTYPE
  5
43B
  2
DOTTED
 70
0
  3
Dotted .  .  .  .
 72
65
 73
2
 40
0.2
 49
0.0
 49
-0.2
  0
ENDTAB
  0
TABLE
  2
STYLE
  70
4
  0
STYLE
  2
KICAD
  70
0
  40
0
  41
1
  42
1
  50
0
  71
0
  3
isocp.shx
  0
STYLE
  2
KICADB
  70
0
  40
0
  41
1
  42
1
  50
0
  71
0
  3
isocp.shx
  0
STYLE
  2
KICADI
  70
0
  40
0
  41
1
  42
1
  50
15
  71
0
  3
isocp.shx
  0
STYLE
  2
KICADBI
  70
0
  40
0
  41
1
  42
1
  50
15
  71
0
  3
isocp.shx
  0
ENDTAB
  0
TABLE
  2
LAYER
  70
1
  0
LAYER
  2
BLACK
  70
0
  62
7
  6
CONTINUOUS
  0
ENDTAB
  0
ENDSEC
  0
SECTION
  2
ENTITIES
0
LINE
8
BLACK
6
CONTINUOUS
10
108.91
20
-109.375
11
107.21
21
-109.375
0
LINE
8
BLACK
6
CONTINUOUS
10
107.21
20
-109.375
11
107.21
21
-107.675
0
LINE
8
BLACK
6
CONTINUOUS
10
107.21
20
-107.675
11
108.91
21
-107.675
0
LINE
8
BLACK
6
CONTINUOUS
10
108.91
20
-107.675
11
108.91
21
-109.375
0
LINE
8
BLACK
6
CONTINUOUS
10
115.943
20
-107.717
11
116.105
21
-107.789
0
LINE
8
BLACK
6
CONTINUOUS
10
116.105
20
-107.789
11
116.249
21
-107.893
0
LINE
8
BLACK
6
CONTINUOUS
10
116.249
20
-107.893
11
116.368
21
-108.025
0
LINE
8
BLACK
6
CONTINUOUS
10
116.368
20
-108.025
11
116.457
21
-108.179
0
LINE
8
BLACK
6
CONTINUOUS
10
116.457
20
-108.179
11
116.511
21
-108.348
0
LINE
8
BLACK
6
CONTINUOUS
10
116.511
20
-108.348
11
116.53
21
-108.525
0
LINE
8
BLACK
6
CONTINUOUS
10
116.53
20
-108.525
11
116.511
21
-108.702
0
LINE
8
BLACK
6
CONTINUOUS
10
116.511
20
-108.702
11
116.457
21
-108.871
0
LINE
8
BLACK
6
CONTINUOUS
10
116.457
20
-108.871
11
116.368
21
-109.025
0
LINE
8
BLACK
6
CONTINUOUS
10
116.368
20
-109.025
11
116.249
21
-109.157
0
LINE
8
BLACK
6
CONTINUOUS
10
116.249
20
-109.157
11
116.105
21
-109.261
0
LINE
8
BLACK
6
CONTINUOUS
10
116.105
20
-109.261
11
115.943
21
-109.333
0
LINE
8
BLACK
6
CONTINUOUS
10
115.943
20
-109.333
11
115.769
21
-109.37
0
LINE
8
BLACK
6
CONTINUOUS
10
115.769
20
-109.37
11
115.591
21
-109.37
0
LINE
8
BLACK
6
CONTINUOUS
10
115.591
20
-109.37
11
115.417
21
-109.333
0
LINE
8
BLACK
6
CONTINUOUS
10
115.417
20
-109.333
11
115.255
21
-109.261
0
LINE
8
BLACK
6
CONTINUOUS
10
115.255
20
-109.261
11
115.111
21
-109.157
0
LINE
8
BLACK
6
CONTINUOUS
10
115.111
20
-109.157
11
114.992
21
-109.025
0
LINE
8
BLACK
6
CONTINUOUS
10
114.992
20
-109.025
11
114.903
21
-108.871
0
LINE
8
BLACK
6
CONTINUOUS
10
114.903
20
-108.871
11
114.849
21
-108.702
0
LINE
8
BLACK
6
CONTINUOUS
10
114.849
20
-108.702
11
114.83
21
-108.525
0
LINE
8
BLACK
6
CONTINUOUS
10
114.83
20
-108.525
11
114.849
21
-108.348
0
LINE
8
BLACK
6
CONTINUOUS
10
114.849
20
-108.348
11
114.903
21
-108.179
0
LINE
8
BLACK
6
CONTINUOUS
10
114.903
20
-108.179
11
114.992
21
-108.025
0
LINE
8
BLACK
6
CONTINUOUS
10
114.992
20
-108.025
11
115.111
21
-107.893
0
LINE
8
BLACK
6
CONTINUOUS
10
115.111
20
-107.893
11
115.255
21
-107.789
0
LINE
8
BLACK
6
CONTINUOUS
10
115.255
20
-107.789
11
115.417
21
-107.717
0
LINE
8
BLACK
6
CONTINUOUS
10
115.417
20
-107.717
11
115.591
21
-107.68
0
LINE
8
BLACK
6
CONTINUOUS
10
115.591
20
-107.68
11
115.769
21
-107.68
0
LINE
8
BLACK
6
CONTINUOUS
10
115.769
20
-107.68
11
115.943
21
-107.717
0
LINE
8
BLACK
6
CONTINUOUS
10
118.483
20
-107.717
11
118.645
21
-107.789
0
LINE
8
BLACK
6
CONTINUOUS
10
118.645
20
-107.789
11
118.789
21
-107.893
0
LINE
8
BLACK
6
CONTINUOUS
10
118.789
20
-107.893
11
118.908
21
-108.025
0
LINE
8
BLACK
6
CONTINUOUS
10
118.908
20
-108.025
11
118.997
21
-108.179
0
LINE
8
BLACK
6
CONTINUOUS
10
118.997
20
-108.179
11
119.051
21
-108.348
0
LINE
8
BLACK
6
CONTINUOUS
10
119.051
20
-108.348
11
119.07
21
-108.525
0
LINE
8
BLACK
6
CONTINUOUS
10
119.07
20
-108.525
11
119.051
21
-108.702
0
LINE
8
BLACK
6
CONTINUOUS
10
119.051
20
-108.702
11
118.997
21
-108.871
0
LINE
8
BLACK
6
CONTINUOUS
10
118.997
20
-108.871
11
118.908
21
-109.025
0
LINE
8
BLACK
6
CONTINUOUS
10
118.908
20
-109.025
11
118.789
21
-109.157
0
LINE
8
BLACK
6
CONTINUOUS
10
118.789
20
-109.157
11
118.645
21
-109.261
0
LINE
8
BLACK
6
CONTINUOUS
10
118.645
20
-109.261
11
118.483
21
-109.333
0
LINE
8
BLACK
6
CONTINUOUS
10
118.483
20
-109.333
11
118.309
21
-109.37
0
LINE
8
BLACK
6
CONTINUOUS
10
118.309
20
-109.37
11
118.131
21
-109.37
0
LINE
8
BLACK
6
CONTINUOUS
10
118.131
20
-109.37
11
117.957
21
-109.333
0
LINE
8
BLACK
6
CONTINUOUS
10
117.957
20
-109.333
11
117.795
21
-109.261
0
LINE
8
BLACK
6
CONTINUOUS
10
117.795
20
-109.261
11
117.651
21
-109.157
0
LINE
8
BLACK
6
CONTINUOUS
10
117.651
20
-109.157
11
117.532
21
-109.025
0
LINE
8
BLACK
6
CONTINUOUS
10
117.532
20
-109.025
11
117.443
21
-108.871
0
LINE
8
BLACK
6
CONTINUOUS
10
117.443
20
-108.871
11
117.389
21
-108.702
0
LINE
8
BLACK
6
CONTINUOUS
10
117.389
20
-108.702
11
117.37
21
-108.525
0
LINE
8
BLACK
6
CONTINUOUS
10
117.37
20
-108.525
11
117.389
21
-108.348
0
LINE
8
BLACK
6
CONTINUOUS
10
117.389
20
-108.348
11
117.443
21
-108.179
0
LINE
8
BLACK
6
CONTINUOUS
10
117.443
20
-108.179
11
117.532
21
-108.025
0
LINE
8
BLACK
6
CONTINUOUS
10
117.532
20
-108.025
11
117.651
21
-107.893
0
LINE
8
BLACK
6
CONTINUOUS
10
117.651
20
-107.893
11
117.795
21
-107.789
0
LINE
8
BLACK
6
CONTINUOUS
10
117.795
20
-107.789
11
117.957
21
-107.717
0
LINE
8
BLACK
6
CONTINUOUS
10
117.957
20
-107.717
11
118.131
21
-107.68
0
LINE
8
BLACK
6
CONTINUOUS
10
118.131
20
-107.68
11
118.309
21
-107.68
0
LINE
8
BLACK
6
CONTINUOUS
10
118.309
20
-107.68
11
118.483
21
-107.717
0
LINE
8
BLACK
6
CONTINUOUS
10
121.023
20
-107.717
11
121.185
21
-107.789
0
LINE
8
BLACK
6
CONTINUOUS
10
121.185
20
-107.789
11
121.329
21
-107.893
0
LINE
8
BLACK
6
CONTINUOUS
10
121.329
20
-107.893
11
121.448
21
-108.025
0
LINE
8
BLACK
6
CONTINUOUS
10
121.448
20
-108.025
11
121.537
21
-108.179
0
LINE
8
BLACK
6
CONTINUOUS
10
121.537
20
-108.179
11
121.591
21
-108.348
0
LINE
8
BLACK
6
CONTINUOUS
10
121.591
20
-108.348
11
121.61
21
-108.525
0
LINE
8
BLACK
6
CONTINUOUS
10
121.61
20
-108.525
11
121.591
21
-108.702
0
LINE
8
BLACK
6
CONTINUOUS
10
121.591
20
-108.702
11
121.537
21
-108.871
0
LINE
8
BLACK
6
CONTINUOUS
10
121.537
20
-108.871
11
121.448
21
-109.025
0
LINE
8
BLACK
6
CONTINUOUS
10
121.448
20
-109.025
11
121.329
21
-109.157
0
LINE
8
BLACK
6
CONTINUOUS
10
121.329
20
-109.157
11
121.185
21
-109.261
0
LINE
8
BLACK
6
CONTINUOUS
10
121.185
20
-109.261
11
121.023
21
-109.333
0
LINE
8
BLACK
6
CONTINUOUS
10
121.023
20
-109.333
11
120.849
21
-109.37
0
LINE
8
BLACK
6
CONTINUOUS
10
120.849
20
-109.37
11
120.671
21
-109.37
0
LINE
8
BLACK
6
CONTINUOUS
10
120.671
20
-109.37
11
120.497
21
-109.333
0
LINE
8
BLACK
6
CONTINUOUS
10
120.497
20
-109.333
11
120.335
21
-109.261
0
LINE
8
BLACK
6
CONTINUOUS
10
120.335
20
-109.261
11
120.191
21
-109.157
0
LINE
8
BLACK
6
CONTINUOUS
10
120.191
20
-109.157
11
120.072
21
-109.025
0
LINE
8
BLACK
6
CONTINUOUS
10
120.072
20
-109.025
11
119.983
21
-108.871
0
LINE
8
BLACK
6
CONTINUOUS
10
119.983
20
-108.871
11
119.929
21
-108.702
0
LINE
8
BLACK
6
CONTINUOUS
10
119.929
20
-108.702
11
119.91
21
-108.525
0
LINE
8
BLACK
6
CONTINUOUS
10
119.91
20
-108.525
11
119.929
21
-108.348
0
LINE
8
BLACK
6
CONTINUOUS
10
119.929
20
-108.348
11
119.983
21
-108.179
0
LINE
8
BLACK
6
CONTINUOUS
10
119.983
20
-108.179
11
120.072
21
-108.025
0
LINE
8
BLACK
6
CONTINUOUS
10
120.072
20
-108.025
11
120.191
21
-107.893
0
LINE
8
BLACK
6
CONTINUOUS
10
120.191
20
-107.893
11
120.335
21
-107.789
0
LINE
8
BLACK
6
CONTINUOUS
10
120.335
20
-107.789
11
120.497
21
-107.717
0
LINE
8
BLACK
6
CONTINUOUS
10
120.497
20
-107.717
11
120.671
21
-107.68
0
LINE
8
BLACK
6
CONTINUOUS
10
120.671
20
-107.68
11
120.849
21
-107.68
0
LINE
8
BLACK
6
CONTINUOUS
10
120.849
20
-107.68
11
121.023
21
-107.717
0
LINE
8
BLACK
6
CONTINUOUS
10
123.563
20
-107.717
11
123.725
21
-107.789
0
LINE
8
BLACK
6
CONTINUOUS
10
123.725
20
-107.789
11
123.869
21
-107.893
0
LINE
8
BLACK
6
CONTINUOUS
10
123.869
20
-107.893
11
123.988
21
-108.025
0
LINE
8
BLACK
6
CONTINUOUS
10
123.988
20
-108.025
11
124.077
21
-108.179
0
LINE
8
BLACK
6
CONTINUOUS
10
124.077
20
-108.179
11
124.131
21
-108.348
0
LINE
8
BLACK
6
CONTINUOUS
10
124.131
20
-108.348
11
124.15
21
-108.525
0
LINE
8
BLACK
6
CONTINUOUS
10
124.15
20
-108.525
11
124.131
21
-108.702
0
LINE
8
BLACK
6
CONTINUOUS
10
124.131
20
-108.702
11
124.077
21
-108.871
0
LINE
8
BLACK
6
CONTINUOUS
10
124.077
20
-108.871
11
123.988
21
-109.025
0
LINE
8
BLACK
6
CONTINUOUS
10
123.988
20
-109.025
11
123.869
21
-109.157
0
LINE
8
BLACK
6
CONTINUOUS
10
123.869
20
-109.157
11
123.725
21
-109.261
0
LINE
8
BLACK
6
CONTINUOUS
10
123.725
20
-109.261
11
123.563
21
-109.333
0
LINE
8
BLACK
6
CONTINUOUS
10
123.563
20
-109.333
11
123.389
21
-109.37
0
LINE
8
BLACK
6
CONTINUOUS
10
123.389
20
-109.37
11
123.211
21
-109.37
0
LINE
8
BLACK
6
CONTINUOUS
10
123.211
20
-109.37
11
123.037
21
-109.333
0
LINE
8
BLACK
6
CONTINUOUS
10
123.037
20
-109.333
11
122.875
21
-109.261
0
LINE
8
BLACK
6
CONTINUOUS
10
122.875
20
-109.261
11
122.731
21
-109.157
0
LINE
8
BLACK
6
CONTINUOUS
10
122.731
20
-109.157
11
122.612
21
-109.025
0
LINE
8
BLACK
6
CONTINUOUS
10
122.612
20
-109.025
11
122.523
21
-108.871
0
LINE
8
BLACK
6
CONTINUOUS
10
122.523
20
-108.871
11
122.469
21
-108.702
0
LINE
8
BLACK
6
CONTINUOUS
10
122.469
20
-108.702
11
122.45
21
-108.525
0
LINE
8
BLACK
6
CONTINUOUS
10
122.45
20
-108.525
11
122.469
21
-108.348
0
LINE
8
BLACK
6
CONTINUOUS
10
122.469
20
-108.348
11
122.523
21
-108.179
0
LINE
8
BLACK
6
CONTINUOUS
10
122.523
20
-108.179
11
122.612
21
-108.025
0
LINE
8
BLACK
6
CONTINUOUS
10
122.612
20
-108.025
11
122.731
21
-107.893
0
LINE
8
BLACK
6
CONTINUOUS
10
122.731
20
-107.893
11
122.875
21
-107.789
0
LINE
8
BLACK
6
CONTINUOUS
10
122.875
20
-107.789
11
123.037
21
-107.717
0
LINE
8
BLACK
6
CONTINUOUS
10
123.037
20
-107.717
11
123.211
21
-107.68
0
LINE
8
BLACK
6
CONTINUOUS
10
123.211
20
-107.68
11
123.389
21
-107.68
0
LINE
8
BLACK
6
CONTINUOUS
10
123.389
20
-107.68
11
123.563
21
-107.717
0
LINE
8
BLACK
6
CONTINUOUS
10
126.103
20
-107.717
11
126.265
21
-107.789
0
LINE
8
BLACK
6
CONTINUOUS
10
126.265
20
-107.789
11
126.409
21
-107.893
0
LINE
8
BLACK
6
CONTINUOUS
10
126.409
20
-107.893
11
126.528
21
-108.025
0
LINE
8
BLACK
6
CONTINUOUS
10
126.528
20
-108.025
11
126.617
21
-108.179
0
LINE
8
BLACK
6
CONTINUOUS
10
126.617
20
-108.179
11
126.671
21
-108.348
0
LINE
8
BLACK
6
CONTINUOUS
10
126.671
20
-108.348
11
126.69
21
-108.525
0
LINE
8
BLACK
6
CONTINUOUS
10
126.69
20
-108.525
11
126.671
21
-108.702
0
LINE
8
BLACK
6
CONTINUOUS
10
126.671
20
-108.702
11
126.617
21
-108.871
0
LINE
8
BLACK
6
CONTINUOUS
10
126.617
20
-108.871
11
126.528
21
-109.025
0
LINE
8
BLACK
6
CONTINUOUS
10
126.528
20
-109.025
11
126.409
21
-109.157
0
LINE
8
BLACK
6
CONTINUOUS
10
126.409
20
-109.157
11
126.265
21
-109.261
0
LINE
8
BLACK
6
CONTINUOUS
10
126.265
20
-109.261
11
126.103
21
-109.333
0
LINE
8
BLACK
6
CONTINUOUS
10
126.103
20
-109.333
11
125.929
21
-109.37
0
LINE
8
BLACK
6
CONTINUOUS
10
125.929
20
-109.37
11
125.751
21
-109.37
0
LINE
8
BLACK
6
CONTINUOUS
10
125.751
20
-109.37
11
125.577
21
-109.333
0
LINE
8
BLACK
6
CONTINUOUS
10
125.577
20
-109.333
11
125.415
21
-109.261
0
LINE
8
BLACK
6
CONTINUOUS
10
125.415
20
-109.261
11
125.271
21
-109.157
0
LINE
8
BLACK
6
CONTINUOUS
10
125.271
20
-109.157
11
125.152
21
-109.025
0
LINE
8
BLACK
6
CONTINUOUS
10
125.152
20
-109.025
11
125.063
21
-108.871
0
LINE
8
BLACK
6
CONTINUOUS
10
125.063
20
-108.871
11
125.009
21
-108.702
0
LINE
8
BLACK
6
CONTINUOUS
10
125.009
20
-108.702
11
124.99
21
-108.525
0
LINE
8
BLACK
6
CONTINUOUS
10
124.99
20
-108.525
11
125.009
21
-108.348
0
LINE
8
BLACK
6
CONTINUOUS
10
125.009
20
-108.348
11
125.063
21
-108.179
0
LINE
8
BLACK
6
CONTINUOUS
10
125.063
20
-108.179
11
125.152
21
-108.025
0
LINE
8
BLACK
6
CONTINUOUS
10
125.152
20
-108.025
11
125.271
21
-107.893
0
LINE
8
BLACK
6
CONTINUOUS
10
125.271
20
-107.893
11
125.415
21
-107.789
0
LINE
8
BLACK
6
CONTINUOUS
10
125.415
20
-107.789
11
125.577
21
-107.717
0
LINE
8
BLACK
6
CONTINUOUS
10
125.577
20
-107.717
11
125.751
21
-107.68
0
LINE
8
BLACK
6
CONTINUOUS
10
125.751
20
-107.68
11
125.929
21
-107.68
0
LINE
8
BLACK
6
CONTINUOUS
10
125.929
20
-107.68
11
126.103
21
-107.717
0
LINE
8
BLACK
6
CONTINUOUS
10
110.863
20
-107.717
11
111.025
21
-107.789
0
LINE
8
BLACK
6
CONTINUOUS
10
111.025
20
-107.789
11
111.169
21
-107.893
0
LINE
8
BLACK
6
CONTINUOUS
10
111.169
20
-107.893
11
111.288
21
-108.025
0
LINE
8
BLACK
6
CONTINUOUS
10
111.288
20
-108.025
11
111.377
21
-108.179
0
LINE
8
BLACK
6
CONTINUOUS
10
111.377
20
-108.179
11
111.431
21
-108.348
0
LINE
8
BLACK
6
CONTINUOUS
10
111.431
20
-108.348
11
111.45
21
-108.525
0
LINE
8
BLACK
6
CONTINUOUS
10
111.45
20
-108.525
11
111.431
21
-108.702
0
LINE
8
BLACK
6
CONTINUOUS
10
111.431
20
-108.702
11
111.377
21
-108.871
0
LINE
8
BLACK
6
CONTINUOUS
10
111.377
20
-108.871
11
111.288
21
-109.025
0
LINE
8
BLACK
6
CONTINUOUS
10
111.288
20
-109.025
11
111.169
21
-109.157
0
LINE
8
BLACK
6
CONTINUOUS
10
111.169
20
-109.157
11
111.025
21
-109.261
0
LINE
8
BLACK
6
CONTINUOUS
10
111.025
20
-109.261
11
110.863
21
-109.333
0
LINE
8
BLACK
6
CONTINUOUS
10
110.863
20
-109.333
11
110.689
21
-109.37
0
LINE
8
BLACK
6
CONTINUOUS
10
110.689
20
-109.37
11
110.511
21
-109.37
0
LINE
8
BLACK
6
CONTINUOUS
10
110.511
20
-109.37
11
110.337
21
-109.333
0
LINE
8
BLACK
6
CONTINUOUS
10
110.337
20
-109.333
11
110.175
21
-109.261
0
LINE
8
BLACK
6
CONTINUOUS
10
110.175
20
-109.261
11
110.031
21
-109.157
0
LINE
8
BLACK
6
CONTINUOUS
10
110.031
20
-109.157
11
109.912
21
-109.025
0
LINE
8
BLACK
6
CONTINUOUS
10
109.912
20
-109.025
11
109.823
21
-108.871
0
LINE
8
BLACK
6
CONTINUOUS
10
109.823
20
-108.871
11
109.769
21
-108.702
0
LINE
8
BLACK
6
CONTINUOUS
10
109.769
20
-108.702
11
109.75
21
-108.525
0
LINE
8
BLACK
6
CONTINUOUS
10
109.75
20
-108.525
11
109.769
21
-108.348
0
LINE
8
BLACK
6
CONTINUOUS
10
109.769
20
-108.348
11
109.823
21
-108.179
0
LINE
8
BLACK
6
CONTINUOUS
10
109.823
20
-108.179
11
109.912
21
-108.025
0
LINE
8
BLACK
6
CONTINUOUS
10
109.912
20
-108.025
11
110.031
21
-107.893
0
LINE
8
BLACK
6
CONTINUOUS
10
110.031
20
-107.893
11
110.175
21
-107.789
0
LINE
8
BLACK
6
CONTINUOUS
10
110.175
20
-107.789
11
110.337
21
-107.717
0
LINE
8
BLACK
6
CONTINUOUS
10
110.337
20
-107.717
11
110.511
21
-107.68
0
LINE
8
BLACK
6
CONTINUOUS
10
110.511
20
-107.68
11
110.689
21
-107.68
0
LINE
8
BLACK
6
CONTINUOUS
10
110.689
20
-107.68
11
110.863
21
-107.717
0
LINE
8
BLACK
6
CONTINUOUS
10
128.643
20
-107.717
11
128.805
21
-107.789
0
LINE
8
BLACK
6
CONTINUOUS
10
128.805
20
-107.789
11
128.949
21
-107.893
0
LINE
8
BLACK
6
CONTINUOUS
10
128.949
20
-107.893
11
129.068
21
-108.025
0
LINE
8
BLACK
6
CONTINUOUS
10
129.068
20
-108.025
11
129.157
21
-108.179
0
LINE
8
BLACK
6
CONTINUOUS
10
129.157
20
-108.179
11
129.211
21
-108.348
0
LINE
8
BLACK
6
CONTINUOUS
10
129.211
20
-108.348
11
129.23
21
-108.525
0
LINE
8
BLACK
6
CONTINUOUS
10
129.23
20
-108.525
11
129.211
21
-108.702
0
LINE
8
BLACK
6
CONTINUOUS
10
129.211
20
-108.702
11
129.157
21
-108.871
0
LINE
8
BLACK
6
CONTINUOUS
10
129.157
20
-108.871
11
129.068
21
-109.025
0
LINE
8
BLACK
6
CONTINUOUS
10
129.068
20
-109.025
11
128.949
21
-109.157
0
LINE
8
BLACK
6
CONTINUOUS
10
128.949
20
-109.157
11
128.805
21
-109.261
0
LINE
8
BLACK
6
CONTINUOUS
10
128.805
20
-109.261
11
128.643
21
-109.333
0
LINE
8
BLACK
6
CONTINUOUS
10
128.643
20
-109.333
11
128.469
21
-109.37
0
LINE
8
BLACK
6
CONTINUOUS
10
128.469
20
-109.37
11
128.291
21
-109.37
0
LINE
8
BLACK
6
CONTINUOUS
10
128.291
20
-109.37
11
128.117
21
-109.333
0
LINE
8
BLACK
6
CONTINUOUS
10
128.117
20
-109.333
11
127.955
21
-109.261
0
LINE
8
BLACK
6
CONTINUOUS
10
127.955
20
-109.261
11
127.811
21
-109.157
0
LINE
8
BLACK
6
CONTINUOUS
10
127.811
20
-109.157
11
127.692
21
-109.025
0
LINE
8
BLACK
6
CONTINUOUS
10
127.692
20
-109.025
11
127.603
21
-108.871
0
LINE
8
BLACK
6
CONTINUOUS
10
127.603
20
-108.871
11
127.549
21
-108.702
0
LINE
8
BLACK
6
CONTINUOUS
10
127.549
20
-108.702
11
127.53
21
-108.525
0
LINE
8
BLACK
6
CONTINUOUS
10
127.53
20
-108.525
11
127.549
21
-108.348
0
LINE
8
BLACK
6
CONTINUOUS
10
127.549
20
-108.348
11
127.603
21
-108.179
0
LINE
8
BLACK
6
CONTINUOUS
10
127.603
20
-108.179
11
127.692
21
-108.025
0
LINE
8
BLACK
6
CONTINUOUS
10
127.692
20
-108.025
11
127.811
21
-107.893
0
LINE
8
BLACK
6
CONTINUOUS
10
127.811
20
-107.893
11
127.955
21
-107.789
0
LINE
8
BLACK
6
CONTINUOUS
10
127.955
20
-107.789
11
128.117
21
-107.717
0
LINE
8
BLACK
6
CONTINUOUS
10
128.117
20
-107.717
11
128.291
21
-107.68
0
LINE
8
BLACK
6
CONTINUOUS
10
128.291
20
-107.68
11
128.469
21
-107.68
0
LINE
8
BLACK
6
CONTINUOUS
10
128.469
20
-107.68
11
128.643
21
-107.717
0
LINE
8
BLACK
6
CONTINUOUS
10
113.403
20
-107.717
11
113.565
21
-107.789
0
LINE
8
BLACK
6
CONTINUOUS
10
113.565
20
-107.789
11
113.709
21
-107.893
0
LINE
8
BLACK
6
CONTINUOUS
10
113.709
20
-107.893
11
113.828
21
-108.025
0
LINE
8
BLACK
6
CONTINUOUS
10
113.828
20
-108.025
11
113.917
21
-108.179
0
LINE
8
BLACK
6
CONTINUOUS
10
113.917
20
-108.179
11
113.971
21
-108.348
0
LINE
8
BLACK
6
CONTINUOUS
10
113.971
20
-108.348
11
113.99
21
-108.525
0
LINE
8
BLACK
6
CONTINUOUS
10
113.99
20
-108.525
11
113.971
21
-108.702
0
LINE
8
BLACK
6
CONTINUOUS
10
113.971
20
-108.702
11
113.917
21
-108.871
0
LINE
8
BLACK
6
CONTINUOUS
10
113.917
20
-108.871
11
113.828
21
-109.025
0
LINE
8
BLACK
6
CONTINUOUS
10
113.828
20
-109.025
11
113.709
21
-109.157
0
LINE
8
BLACK
6
CONTINUOUS
10
113.709
20
-109.157
11
113.565
21
-109.261
0
LINE
8
BLACK
6
CONTINUOUS
10
113.565
20
-109.261
11
113.403
21
-109.333
0
LINE
8
BLACK
6
CONTINUOUS
10
113.403
20
-109.333
11
113.229
21
-109.37
0
LINE
8
BLACK
6
CONTINUOUS
10
113.229
20
-109.37
11
113.051
21
-109.37
0
LINE
8
BLACK
6
CONTINUOUS
10
113.051
20
-109.37
11
112.877
21
-109.333
0
LINE
8
BLACK
6
CONTINUOUS
10
112.877
20
-109.333
11
112.715
21
-109.261
0
LINE
8
BLACK
6
CONTINUOUS
10
112.715
20
-109.261
11
112.571
21
-109.157
0
LINE
8
BLACK
6
CONTINUOUS
10
112.571
20
-109.157
11
112.452
21
-109.025
0
LINE
8
BLACK
6
CONTINUOUS
10
112.452
20
-109.025
11
112.363
21
-108.871
0
LINE
8
BLACK
6
CONTINUOUS
10
112.363
20
-108.871
11
112.309
21
-108.702
0
LINE
8
BLACK
6
CONTINUOUS
10
112.309
20
-108.702
11
112.29
21
-108.525
0
LINE
8
BLACK
6
CONTINUOUS
10
112.29
20
-108.525
11
112.309
21
-108.348
0
LINE
8
BLACK
6
CONTINUOUS
10
112.309
20
-108.348
11
112.363
21
-108.179
0
LINE
8
BLACK
6
CONTINUOUS
10
112.363
20
-108.179
11
112.452
21
-108.025
0
LINE
8
BLACK
6
CONTINUOUS
10
112.452
20
-108.025
11
112.571
21
-107.893
0
LINE
8
BLACK
6
CONTINUOUS
10
112.571
20
-107.893
11
112.715
21
-107.789
0
LINE
8
BLACK
6
CONTINUOUS
10
112.715
20
-107.789
11
112.877
21
-107.717
0
LINE
8
BLACK
6
CONTINUOUS
10
112.877
20
-107.717
11
113.051
21
-107.68
0
LINE
8
BLACK
6
CONTINUOUS
10
113.051
20
-107.68
11
113.229
21
-107.68
0
LINE
8
BLACK
6
CONTINUOUS
10
113.229
20
-107.68
11
113.403
21
-107.717
0
LINE
8
BLACK
6
CONTINUOUS
10
131.183
20
-107.717
11
131.345
21
-107.789
0
LINE
8
BLACK
6
CONTINUOUS
10
131.345
20
-107.789
11
131.489
21
-107.893
0
LINE
8
BLACK
6
CONTINUOUS
10
131.489
20
-107.893
11
131.608
21
-108.025
0
LINE
8
BLACK
6
CONTINUOUS
10
131.608
20
-108.025
11
131.697
21
-108.179
0
LINE
8
BLACK
6
CONTINUOUS
10
131.697
20
-108.179
11
131.751
21
-108.348
0
LINE
8
BLACK
6
CONTINUOUS
10
131.751
20
-108.348
11
131.77
21
-108.525
0
LINE
8
BLACK
6
CONTINUOUS
10
131.77
20
-108.525
11
131.751
21
-108.702
0
LINE
8
BLACK
6
CONTINUOUS
10
131.751
20
-108.702
11
131.697
21
-108.871
0
LINE
8
BLACK
6
CONTINUOUS
10
131.697
20
-108.871
11
131.608
21
-109.025
0
LINE
8
BLACK
6
CONTINUOUS
10
131.608
20
-109.025
11
131.489
21
-109.157
0
LINE
8
BLACK
6
CONTINUOUS
10
131.489
20
-109.157
11
131.345
21
-109.261
0
LINE
8
BLACK
6
CONTINUOUS
10
131.345
20
-109.261
11
131.183
21
-109.333
0
LINE
8
BLACK
6
CONTINUOUS
10
131.183
20
-109.333
11
131.009
21
-109.37
0
LINE
8
BLACK
6
CONTINUOUS
10
131.009
20
-109.37
11
130.831
21
-109.37
0
LINE
8
BLACK
6
CONTINUOUS
10
130.831
20
-109.37
11
130.657
21
-109.333
0
LINE
8
BLACK
6
CONTINUOUS
10
130.657
20
-109.333
11
130.495
21
-109.261
0
LINE
8
BLACK
6
CONTINUOUS
10
130.495
20
-109.261
11
130.351
21
-109.157
0
LINE
8
BLACK
6
CONTINUOUS
10
130.351
20
-109.157
11
130.232
21
-109.025
0
LINE
8
BLACK
6
CONTINUOUS
10
130.232
20
-109.025
11
130.143
21
-108.871
0
LINE
8
BLACK
6
CONTINUOUS
10
130.143
20
-108.871
11
130.089
21
-108.702
0
LINE
8
BLACK
6
CONTINUOUS
10
130.089
20
-108.702
11
130.07
21
-108.525
0
LINE
8
BLACK
6
CONTINUOUS
10
130.07
20
-108.525
11
130.089
21
-108.348
0
LINE
8
BLACK
6
CONTINUOUS
10
130.089
20
-108.348
11
130.143
21
-108.179
0
LINE
8
BLACK
6
CONTINUOUS
10
130.143
20
-108.179
11
130.232
21
-108.025
0
LINE
8
BLACK
6
CONTINUOUS
10
130.232
20
-108.025
11
130.351
21
-107.893
0
LINE
8
BLACK
6
CONTINUOUS
10
130.351
20
-107.893
11
130.495
21
-107.789
0
LINE
8
BLACK
6
CONTINUOUS
10
130.495
20
-107.789
11
130.657
21
-107.717
0
LINE
8
BLACK
6
CONTINUOUS
10
130.657
20
-107.717
11
130.831
21
-107.68
0
LINE
8
BLACK
6
CONTINUOUS
10
130.831
20
-107.68
11
131.009
21
-107.68
0
LINE
8
BLACK
6
CONTINUOUS
10
131.009
20
-107.68
11
131.183
21
-107.717
0
LINE
8
BLACK
6
CONTINUOUS
10
136.263
20
-107.717
11
136.425
21
-107.789
0
LINE
8
BLACK
6
CONTINUOUS
10
136.425
20
-107.789
11
136.569
21
-107.893
0
LINE
8
BLACK
6
CONTINUOUS
10
136.569
20
-107.893
11
136.688
21
-108.025
0
LINE
8
BLACK
6
CONTINUOUS
10
136.688
20
-108.025
11
136.777
21
-108.179
0
LINE
8
BLACK
6
CONTINUOUS
10
136.777
20
-108.179
11
136.831
21
-108.348
0
LINE
8
BLACK
6
CONTINUOUS
10
136.831
20
-108.348
11
136.85
21
-108.525
0
LINE
8
BLACK
6
CONTINUOUS
10
136.85
20
-108.525
11
136.831
21
-108.702
0
LINE
8
BLACK
6
CONTINUOUS
10
136.831
20
-108.702
11
136.777
21
-108.871
0
LINE
8
BLACK
6
CONTINUOUS
10
136.777
20
-108.871
11
136.688
21
-109.025
0
LINE
8
BLACK
6
CONTINUOUS
10
136.688
20
-109.025
11
136.569
21
-109.157
0
LINE
8
BLACK
6
CONTINUOUS
10
136.569
20
-109.157
11
136.425
21
-109.261
0
LINE
8
BLACK
6
CONTINUOUS
10
136.425
20
-109.261
11
136.263
21
-109.333
0
LINE
8
BLACK
6
CONTINUOUS
10
136.263
20
-109.333
11
136.089
21
-109.37
0
LINE
8
BLACK
6
CONTINUOUS
10
136.089
20
-109.37
11
135.911
21
-109.37
0
LINE
8
BLACK
6
CONTINUOUS
10
135.911
20
-109.37
11
135.737
21
-109.333
0
LINE
8
BLACK
6
CONTINUOUS
10
135.737
20
-109.333
11
135.575
21
-109.261
0
LINE
8
BLACK
6
CONTINUOUS
10
135.575
20
-109.261
11
135.431
21
-109.157
0
LINE
8
BLACK
6
CONTINUOUS
10
135.431
20
-109.157
11
135.312
21
-109.025
0
LINE
8
BLACK
6
CONTINUOUS
10
135.312
20
-109.025
11
135.223
21
-108.871
0
LINE
8
BLACK
6
CONTINUOUS
10
135.223
20
-108.871
11
135.169
21
-108.702
0
LINE
8
BLACK
6
CONTINUOUS
10
135.169
20
-108.702
11
135.15
21
-108.525
0
LINE
8
BLACK
6
CONTINUOUS
10
135.15
20
-108.525
11
135.169
21
-108.348
0
LINE
8
BLACK
6
CONTINUOUS
10
135.169
20
-108.348
11
135.223
21
-108.179
0
LINE
8
BLACK
6
CONTINUOUS
10
135.223
20
-108.179
11
135.312
21
-108.025
0
LINE
8
BLACK
6
CONTINUOUS
10
135.312
20
-108.025
11
135.431
21
-107.893
0
LINE
8
BLACK
6
CONTINUOUS
10
135.431
20
-107.893
11
135.575
21
-107.789
0
LINE
8
BLACK
6
CONTINUOUS
10
135.575
20
-107.789
11
135.737
21
-107.717
0
LINE
8
BLACK
6
CONTINUOUS
10
135.737
20
-107.717
11
135.911
21
-107.68
0
LINE
8
BLACK
6
CONTINUOUS
10
135.911
20
-107.68
11
136.089
21
-107.68
0
LINE
8
BLACK
6
CONTINUOUS
10
136.089
20
-107.68
11
136.263
21
-107.717
0
LINE
8
BLACK
6
CONTINUOUS
10
133.723
20
-107.717
11
133.885
21
-107.789
0
LINE
8
BLACK
6
CONTINUOUS
10
133.885
20
-107.789
11
134.029
21
-107.893
0
LINE
8
BLACK
6
CONTINUOUS
10
134.029
20
-107.893
11
134.148
21
-108.025
0
LINE
8
BLACK
6
CONTINUOUS
10
134.148
20
-108.025
11
134.237
21
-108.179
0
LINE
8
BLACK
6
CONTINUOUS
10
134.237
20
-108.179
11
134.291
21
-108.348
0
LINE
8
BLACK
6
CONTINUOUS
10
134.291
20
-108.348
11
134.31
21
-108.525
0
LINE
8
BLACK
6
CONTINUOUS
10
134.31
20
-108.525
11
134.291
21
-108.702
0
LINE
8
BLACK
6
CONTINUOUS
10
134.291
20
-108.702
11
134.237
21
-108.871
0
LINE
8
BLACK
6
CONTINUOUS
10
134.237
20
-108.871
11
134.148
21
-109.025
0
LINE
8
BLACK
6
CONTINUOUS
10
134.148
20
-109.025
11
134.029
21
-109.157
0
LINE
8
BLACK
6
CONTINUOUS
10
134.029
20
-109.157
11
133.885
21
-109.261
0
LINE
8
BLACK
6
CONTINUOUS
10
133.885
20
-109.261
11
133.723
21
-109.333
0
LINE
8
BLACK
6
CONTINUOUS
10
133.723
20
-109.333
11
133.549
21
-109.37
0
LINE
8
BLACK
6
CONTINUOUS
10
133.549
20
-109.37
11
133.371
21
-109.37
0
LINE
8
BLACK
6
CONTINUOUS
10
133.371
20
-109.37
11
133.197
21
-109.333
0
LINE
8
BLACK
6
CONTINUOUS
10
133.197
20
-109.333
11
133.035
21
-109.261
0
LINE
8
BLACK
6
CONTINUOUS
10
133.035
20
-109.261
11
132.891
21
-109.157
0
LINE
8
BLACK
6
CONTINUOUS
10
132.891
20
-109.157
11
132.772
21
-109.025
0
LINE
8
BLACK
6
CONTINUOUS
10
132.772
20
-109.025
11
132.683
21
-108.871
0
LINE
8
BLACK
6
CONTINUOUS
10
132.683
20
-108.871
11
132.629
21
-108.702
0
LINE
8
BLACK
6
CONTINUOUS
10
132.629
20
-108.702
11
132.61
21
-108.525
0
LINE
8
BLACK
6
CONTINUOUS
10
132.61
20
-108.525
11
132.629
21
-108.348
0
LINE
8
BLACK
6
CONTINUOUS
10
132.629
20
-108.348
11
132.683
21
-108.179
0
LINE
8
BLACK
6
CONTINUOUS
10
132.683
20
-108.179
11
132.772
21
-108.025
0
LINE
8
BLACK
6
CONTINUOUS
10
132.772
20
-108.025
11
132.891
21
-107.893
0
LINE
8
BLACK
6
CONTINUOUS
10
132.891
20
-107.893
11
133.035
21
-107.789
0
LINE
8
BLACK
6
CONTINUOUS
10
133.035
20
-107.789
11
133.197
21
-107.717
0
LINE
8
BLACK
6
CONTINUOUS
10
133.197
20
-107.717
11
133.371
21
-107.68
0
LINE
8
BLACK
6
CONTINUOUS
10
133.371
20
-107.68
11
133.549
21
-107.68
0
LINE
8
BLACK
6
CONTINUOUS
10
133.549
20
-107.68
11
133.723
21
-107.717
0
LINE
8
BLACK
6
CONTINUOUS
10
141.157
20
-105.207
11
141.42
21
-105.25
0
LINE
8
BLACK
6
CONTINUOUS
10
141.42
20
-105.25
11
141.674
21
-105.331
0
LINE
8
BLACK
6
CONTINUOUS
10
141.674
20
-105.331
11
141.914
21
-105.449
0
LINE
8
BLACK
6
CONTINUOUS
10
141.914
20
-105.449
11
142.133
21
-105.601
0
LINE
8
BLACK
6
CONTINUOUS
10
142.133
20
-105.601
11
142.327
21
-105.784
0
LINE
8
BLACK
6
CONTINUOUS
10
142.327
20
-105.784
11
142.492
21
-105.993
0
LINE
8
BLACK
6
CONTINUOUS
10
142.492
20
-105.993
11
142.625
21
-106.225
0
LINE
8
BLACK
6
CONTINUOUS
10
142.625
20
-106.225
11
142.721
21
-106.474
0
LINE
8
BLACK
6
CONTINUOUS
10
142.721
20
-106.474
11
142.78
21
-106.734
0
LINE
8
BLACK
6
CONTINUOUS
10
142.78
20
-106.734
11
142.8
21
-107
0
LINE
8
BLACK
6
CONTINUOUS
10
142.8
20
-107
11
142.798
21
-107.094
0
LINE
8
BLACK
6
CONTINUOUS
10
142.798
20
-107.094
11
142.764
21
-107.359
0
LINE
8
BLACK
6
CONTINUOUS
10
142.764
20
-107.359
11
142.691
21
-107.616
0
LINE
8
BLACK
6
CONTINUOUS
10
142.691
20
-107.616
11
142.582
21
-107.859
0
LINE
8
BLACK
6
CONTINUOUS
10
142.582
20
-107.859
11
142.438
21
-108.083
0
LINE
8
BLACK
6
CONTINUOUS
10
142.438
20
-108.083
11
142.262
21
-108.284
0
LINE
8
BLACK
6
CONTINUOUS
10
142.262
20
-108.284
11
142.058
21
-108.456
0
LINE
8
BLACK
6
CONTINUOUS
10
142.058
20
-108.456
11
141.831
21
-108.597
0
LINE
8
BLACK
6
CONTINUOUS
10
141.831
20
-108.597
11
141.586
21
-108.702
0
LINE
8
BLACK
6
CONTINUOUS
10
141.586
20
-108.702
11
141.328
21
-108.77
0
LINE
8
BLACK
6
CONTINUOUS
10
141.328
20
-108.77
11
141.063
21
-108.799
0
LINE
8
BLACK
6
CONTINUOUS
10
141.063
20
-108.799
11
140.796
21
-108.788
0
LINE
8
BLACK
6
CONTINUOUS
10
140.796
20
-108.788
11
140.534
21
-108.739
0
LINE
8
BLACK
6
CONTINUOUS
10
140.534
20
-108.739
11
140.282
21
-108.651
0
LINE
8
BLACK
6
CONTINUOUS
10
140.282
20
-108.651
11
140.046
21
-108.526
0
LINE
8
BLACK
6
CONTINUOUS
10
140.046
20
-108.526
11
139.831
21
-108.369
0
LINE
8
BLACK
6
CONTINUOUS
10
139.831
20
-108.369
11
139.642
21
-108.181
0
LINE
8
BLACK
6
CONTINUOUS
10
139.642
20
-108.181
11
139.482
21
-107.967
0
LINE
8
BLACK
6
CONTINUOUS
10
139.482
20
-107.967
11
139.356
21
-107.732
0
LINE
8
BLACK
6
CONTINUOUS
10
139.356
20
-107.732
11
139.265
21
-107.481
0
LINE
8
BLACK
6
CONTINUOUS
10
139.265
20
-107.481
11
139.213
21
-107.219
0
LINE
8
BLACK
6
CONTINUOUS
10
139.213
20
-107.219
11
139.201
21
-106.953
0
LINE
8
BLACK
6
CONTINUOUS
10
139.201
20
-106.953
11
139.227
21
-106.687
0
LINE
8
BLACK
6
CONTINUOUS
10
139.227
20
-106.687
11
139.293
21
-106.429
0
LINE
8
BLACK
6
CONTINUOUS
10
139.293
20
-106.429
11
139.396
21
-106.183
0
LINE
8
BLACK
6
CONTINUOUS
10
139.396
20
-106.183
11
139.535
21
-105.955
0
LINE
8
BLACK
6
CONTINUOUS
10
139.535
20
-105.955
11
139.705
21
-105.75
0
LINE
8
BLACK
6
CONTINUOUS
10
139.705
20
-105.75
11
139.904
21
-105.572
0
LINE
8
BLACK
6
CONTINUOUS
10
139.904
20
-105.572
11
140.127
21
-105.426
0
LINE
8
BLACK
6
CONTINUOUS
10
140.127
20
-105.426
11
140.37
21
-105.314
0
LINE
8
BLACK
6
CONTINUOUS
10
140.37
20
-105.314
11
140.626
21
-105.239
0
LINE
8
BLACK
6
CONTINUOUS
10
140.626
20
-105.239
11
140.89
21
-105.203
0
LINE
8
BLACK
6
CONTINUOUS
10
140.89
20
-105.203
11
141.157
21
-105.207
0
LINE
8
BLACK
6
CONTINUOUS
10
103.157
20
-105.207
11
103.42
21
-105.25
0
LINE
8
BLACK
6
CONTINUOUS
10
103.42
20
-105.25
11
103.674
21
-105.331
0
LINE
8
BLACK
6
CONTINUOUS
10
103.674
20
-105.331
11
103.914
21
-105.449
0
LINE
8
BLACK
6
CONTINUOUS
10
103.914
20
-105.449
11
104.133
21
-105.601
0
LINE
8
BLACK
6
CONTINUOUS
10
104.133
20
-105.601
11
104.327
21
-105.784
0
LINE
8
BLACK
6
CONTINUOUS
10
104.327
20
-105.784
11
104.492
21
-105.993
0
LINE
8
BLACK
6
CONTINUOUS
10
104.492
20
-105.993
11
104.625
21
-106.225
0
LINE
8
BLACK
6
CONTINUOUS
10
104.625
20
-106.225
11
104.721
21
-106.474
0
LINE
8
BLACK
6
CONTINUOUS
10
104.721
20
-106.474
11
104.78
21
-106.734
0
LINE
8
BLACK
6
CONTINUOUS
10
104.78
20
-106.734
11
104.8
21
-107
0
LINE
8
BLACK
6
CONTINUOUS
10
104.8
20
-107
11
104.798
21
-107.094
0
LINE
8
BLACK
6
CONTINUOUS
10
104.798
20
-107.094
11
104.764
21
-107.359
0
LINE
8
BLACK
6
CONTINUOUS
10
104.764
20
-107.359
11
104.691
21
-107.616
0
LINE
8
BLACK
6
CONTINUOUS
10
104.691
20
-107.616
11
104.582
21
-107.859
0
LINE
8
BLACK
6
CONTINUOUS
10
104.582
20
-107.859
11
104.438
21
-108.083
0
LINE
8
BLACK
6
CONTINUOUS
10
104.438
20
-108.083
11
104.262
21
-108.284
0
LINE
8
BLACK
6
CONTINUOUS
10
104.262
20
-108.284
11
104.058
21
-108.456
0
LINE
8
BLACK
6
CONTINUOUS
10
104.058
20
-108.456
11
103.831
21
-108.597
0
LINE
8
BLACK
6
CONTINUOUS
10
103.831
20
-108.597
11
103.586
21
-108.702
0
LINE
8
BLACK
6
CONTINUOUS
10
103.586
20
-108.702
11
103.328
21
-108.77
0
LINE
8
BLACK
6
CONTINUOUS
10
103.328
20
-108.77
11
103.063
21
-108.799
0
LINE
8
BLACK
6
CONTINUOUS
10
103.063
20
-108.799
11
102.796
21
-108.788
0
LINE
8
BLACK
6
CONTINUOUS
10
102.796
20
-108.788
11
102.534
21
-108.739
0
LINE
8
BLACK
6
CONTINUOUS
10
102.534
20
-108.739
11
102.282
21
-108.651
0
LINE
8
BLACK
6
CONTINUOUS
10
102.282
20
-108.651
11
102.046
21
-108.526
0
LINE
8
BLACK
6
CONTINUOUS
10
102.046
20
-108.526
11
101.831
21
-108.369
0
LINE
8
BLACK
6
CONTINUOUS
10
101.831
20
-108.369
11
101.642
21
-108.181
0
LINE
8
BLACK
6
CONTINUOUS
10
101.642
20
-108.181
11
101.482
21
-107.967
0
LINE
8
BLACK
6
CONTINUOUS
10
101.482
20
-107.967
11
101.356
21
-107.732
0
LINE
8
BLACK
6
CONTINUOUS
10
101.356
20
-107.732
11
101.265
21
-107.481
0
LINE
8
BLACK
6
CONTINUOUS
10
101.265
20
-107.481
11
101.213
21
-107.219
0
LINE
8
BLACK
6
CONTINUOUS
10
101.213
20
-107.219
11
101.201
21
-106.953
0
LINE
8
BLACK
6
CONTINUOUS
10
101.201
20
-106.953
11
101.227
21
-106.687
0
LINE
8
BLACK
6
CONTINUOUS
10
101.227
20
-106.687
11
101.293
21
-106.429
0
LINE
8
BLACK
6
CONTINUOUS
10
101.293
20
-106.429
11
101.396
21
-106.183
0
LINE
8
BLACK
6
CONTINUOUS
10
101.396
20
-106.183
11
101.535
21
-105.955
0
LINE
8
BLACK
6
CONTINUOUS
10
101.535
20
-105.955
11
101.705
21
-105.75
0
LINE
8
BLACK
6
CONTINUOUS
10
101.705
20
-105.75
11
101.904
21
-105.572
0
LINE
8
BLACK
6
CONTINUOUS
10
101.904
20
-105.572
11
102.127
21
-105.426
0
LINE
8
BLACK
6
CONTINUOUS
10
102.127
20
-105.426
11
102.37
21
-105.314
0
LINE
8
BLACK
6
CONTINUOUS
10
102.37
20
-105.314
11
102.626
21
-105.239
0
LINE
8
BLACK
6
CONTINUOUS
10
102.626
20
-105.239
11
102.89
21
-105.203
0
LINE
8
BLACK
6
CONTINUOUS
10
102.89
20
-105.203
11
103.157
21
-105.207
0
LINE
8
BLACK
6
CONTINUOUS
10
131.183
20
-105.177
11
131.345
21
-105.249
0
LINE
8
BLACK
6
CONTINUOUS
10
131.345
20
-105.249
11
131.489
21
-105.353
0
LINE
8
BLACK
6
CONTINUOUS
10
131.489
20
-105.353
11
131.608
21
-105.485
0
LINE
8
BLACK
6
CONTINUOUS
10
131.608
20
-105.485
11
131.697
21
-105.639
0
LINE
8
BLACK
6
CONTINUOUS
10
131.697
20
-105.639
11
131.751
21
-105.808
0
LINE
8
BLACK
6
CONTINUOUS
10
131.751
20
-105.808
11
131.77
21
-105.985
0
LINE
8
BLACK
6
CONTINUOUS
10
131.77
20
-105.985
11
131.751
21
-106.162
0
LINE
8
BLACK
6
CONTINUOUS
10
131.751
20
-106.162
11
131.697
21
-106.331
0
LINE
8
BLACK
6
CONTINUOUS
10
131.697
20
-106.331
11
131.608
21
-106.485
0
LINE
8
BLACK
6
CONTINUOUS
10
131.608
20
-106.485
11
131.489
21
-106.617
0
LINE
8
BLACK
6
CONTINUOUS
10
131.489
20
-106.617
11
131.345
21
-106.721
0
LINE
8
BLACK
6
CONTINUOUS
10
131.345
20
-106.721
11
131.183
21
-106.793
0
LINE
8
BLACK
6
CONTINUOUS
10
131.183
20
-106.793
11
131.009
21
-106.83
0
LINE
8
BLACK
6
CONTINUOUS
10
131.009
20
-106.83
11
130.831
21
-106.83
0
LINE
8
BLACK
6
CONTINUOUS
10
130.831
20
-106.83
11
130.657
21
-106.793
0
LINE
8
BLACK
6
CONTINUOUS
10
130.657
20
-106.793
11
130.495
21
-106.721
0
LINE
8
BLACK
6
CONTINUOUS
10
130.495
20
-106.721
11
130.351
21
-106.617
0
LINE
8
BLACK
6
CONTINUOUS
10
130.351
20
-106.617
11
130.232
21
-106.485
0
LINE
8
BLACK
6
CONTINUOUS
10
130.232
20
-106.485
11
130.143
21
-106.331
0
LINE
8
BLACK
6
CONTINUOUS
10
130.143
20
-106.331
11
130.089
21
-106.162
0
LINE
8
BLACK
6
CONTINUOUS
10
130.089
20
-106.162
11
130.07
21
-105.985
0
LINE
8
BLACK
6
CONTINUOUS
10
130.07
20
-105.985
11
130.089
21
-105.808
0
LINE
8
BLACK
6
CONTINUOUS
10
130.089
20
-105.808
11
130.143
21
-105.639
0
LINE
8
BLACK
6
CONTINUOUS
10
130.143
20
-105.639
11
130.232
21
-105.485
0
LINE
8
BLACK
6
CONTINUOUS
10
130.232
20
-105.485
11
130.351
21
-105.353
0
LINE
8
BLACK
6
CONTINUOUS
10
130.351
20
-105.353
11
130.495
21
-105.249
0
LINE
8
BLACK
6
CONTINUOUS
10
130.495
20
-105.249
11
130.657
21
-105.177
0
LINE
8
BLACK
6
CONTINUOUS
10
130.657
20
-105.177
11
130.831
21
-105.14
0
LINE
8
BLACK
6
CONTINUOUS
10
130.831
20
-105.14
11
131.009
21
-105.14
0
LINE
8
BLACK
6
CONTINUOUS
10
131.009
20
-105.14
11
131.183
21
-105.177
0
LINE
8
BLACK
6
CONTINUOUS
10
136.263
20
-105.177
11
136.425
21
-105.249
0
LINE
8
BLACK
6
CONTINUOUS
10
136.425
20
-105.249
11
136.569
21
-105.353
0
LINE
8
BLACK
6
CONTINUOUS
10
136.569
20
-105.353
11
136.688
21
-105.485
0
LINE
8
BLACK
6
CONTINUOUS
10
136.688
20
-105.485
11
136.777
21
-105.639
0
LINE
8
BLACK
6
CONTINUOUS
10
136.777
20
-105.639
11
136.831
21
-105.808
0
LINE
8
BLACK
6
CONTINUOUS
10
136.831
20
-105.808
11
136.85
21
-105.985
0
LINE
8
BLACK
6
CONTINUOUS
10
136.85
20
-105.985
11
136.831
21
-106.162
0
LINE
8
BLACK
6
CONTINUOUS
10
136.831
20
-106.162
11
136.777
21
-106.331
0
LINE
8
BLACK
6
CONTINUOUS
10
136.777
20
-106.331
11
136.688
21
-106.485
0
LINE
8
BLACK
6
CONTINUOUS
10
136.688
20
-106.485
11
136.569
21
-106.617
0
LINE
8
BLACK
6
CONTINUOUS
10
136.569
20
-106.617
11
136.425
21
-106.721
0
LINE
8
BLACK
6
CONTINUOUS
10
136.425
20
-106.721
11
136.263
21
-106.793
0
LINE
8
BLACK
6
CONTINUOUS
10
136.263
20
-106.793
11
136.089
21
-106.83
0
LINE
8
BLACK
6
CONTINUOUS
10
136.089
20
-106.83
11
135.911
21
-106.83
0
LINE
8
BLACK
6
CONTINUOUS
10
135.911
20
-106.83
11
135.737
21
-106.793
0
LINE
8
BLACK
6
CONTINUOUS
10
135.737
20
-106.793
11
135.575
21
-106.721
0
LINE
8
BLACK
6
CONTINUOUS
10
135.575
20
-106.721
11
135.431
21
-106.617
0
LINE
8
BLACK
6
CONTINUOUS
10
135.431
20
-106.617
11
135.312
21
-106.485
0
LINE
8
BLACK
6
CONTINUOUS
10
135.312
20
-106.485
11
135.223
21
-106.331
0
LINE
8
BLACK
6
CONTINUOUS
10
135.223
20
-106.331
11
135.169
21
-106.162
0
LINE
8
BLACK
6
CONTINUOUS
10
135.169
20
-106.162
11
135.15
21
-105.985
0
LINE
8
BLACK
6
CONTINUOUS
10
135.15
20
-105.985
11
135.169
21
-105.808
0
LINE
8
BLACK
6
CONTINUOUS
10
135.169
20
-105.808
11
135.223
21
-105.639
0
LINE
8
BLACK
6
CONTINUOUS
10
135.223
20
-105.639
11
135.312
21
-105.485
0
LINE
8
BLACK
6
CONTINUOUS
10
135.312
20
-105.485
11
135.431
21
-105.353
0
LINE
8
BLACK
6
CONTINUOUS
10
135.431
20
-105.353
11
135.575
21
-105.249
0
LINE
8
BLACK
6
CONTINUOUS
10
135.575
20
-105.249
11
135.737
21
-105.177
0
LINE
8
BLACK
6
CONTINUOUS
10
135.737
20
-105.177
11
135.911
21
-105.14
0
LINE
8
BLACK
6
CONTINUOUS
10
135.911
20
-105.14
11
136.089
21
-105.14
0
LINE
8
BLACK
6
CONTINUOUS
10
136.089
20
-105.14
11
136.263
21
-105.177
0
LINE
8
BLACK
6
CONTINUOUS
10
128.643
20
-105.177
11
128.805
21
-105.249
0
LINE
8
BLACK
6
CONTINUOUS
10
128.805
20
-105.249
11
128.949
21
-105.353
0
LINE
8
BLACK
6
CONTINUOUS
10
128.949
20
-105.353
11
129.068
21
-105.485
0
LINE
8
BLACK
6
CONTINUOUS
10
129.068
20
-105.485
11
129.157
21
-105.639
0
LINE
8
BLACK
6
CONTINUOUS
10
129.157
20
-105.639
11
129.211
21
-105.808
0
LINE
8
BLACK
6
CONTINUOUS
10
129.211
20
-105.808
11
129.23
21
-105.985
0
LINE
8
BLACK
6
CONTINUOUS
10
129.23
20
-105.985
11
129.211
21
-106.162
0
LINE
8
BLACK
6
CONTINUOUS
10
129.211
20
-106.162
11
129.157
21
-106.331
0
LINE
8
BLACK
6
CONTINUOUS
10
129.157
20
-106.331
11
129.068
21
-106.485
0
LINE
8
BLACK
6
CONTINUOUS
10
129.068
20
-106.485
11
128.949
21
-106.617
0
LINE
8
BLACK
6
CONTINUOUS
10
128.949
20
-106.617
11
128.805
21
-106.721
0
LINE
8
BLACK
6
CONTINUOUS
10
128.805
20
-106.721
11
128.643
21
-106.793
0
LINE
8
BLACK
6
CONTINUOUS
10
128.643
20
-106.793
11
128.469
21
-106.83
0
LINE
8
BLACK
6
CONTINUOUS
10
128.469
20
-106.83
11
128.291
21
-106.83
0
LINE
8
BLACK
6
CONTINUOUS
10
128.291
20
-106.83
11
128.117
21
-106.793
0
LINE
8
BLACK
6
CONTINUOUS
10
128.117
20
-106.793
11
127.955
21
-106.721
0
LINE
8
BLACK
6
CONTINUOUS
10
127.955
20
-106.721
11
127.811
21
-106.617
0
LINE
8
BLACK
6
CONTINUOUS
10
127.811
20
-106.617
11
127.692
21
-106.485
0
LINE
8
BLACK
6
CONTINUOUS
10
127.692
20
-106.485
11
127.603
21
-106.331
0
LINE
8
BLACK
6
CONTINUOUS
10
127.603
20
-106.331
11
127.549
21
-106.162
0
LINE
8
BLACK
6
CONTINUOUS
10
127.549
20
-106.162
11
127.53
21
-105.985
0
LINE
8
BLACK
6
CONTINUOUS
10
127.53
20
-105.985
11
127.549
21
-105.808
0
LINE
8
BLACK
6
CONTINUOUS
10
127.549
20
-105.808
11
127.603
21
-105.639
0
LINE
8
BLACK
6
CONTINUOUS
10
127.603
20
-105.639
11
127.692
21
-105.485
0
LINE
8
BLACK
6
CONTINUOUS
10
127.692
20
-105.485
11
127.811
21
-105.353
0
LINE
8
BLACK
6
CONTINUOUS
10
127.811
20
-105.353
11
127.955
21
-105.249
0
LINE
8
BLACK
6
CONTINUOUS
10
127.955
20
-105.249
11
128.117
21
-105.177
0
LINE
8
BLACK
6
CONTINUOUS
10
128.117
20
-105.177
11
128.291
21
-105.14
0
LINE
8
BLACK
6
CONTINUOUS
10
128.291
20
-105.14
11
128.469
21
-105.14
0
LINE
8
BLACK
6
CONTINUOUS
10
128.469
20
-105.14
11
128.643
21
-105.177
0
LINE
8
BLACK
6
CONTINUOUS
10
110.863
20
-105.177
11
111.025
21
-105.249
0
LINE
8
BLACK
6
CONTINUOUS
10
111.025
20
-105.249
11
111.169
21
-105.353
0
LINE
8
BLACK
6
CONTINUOUS
10
111.169
20
-105.353
11
111.288
21
-105.485
0
LINE
8
BLACK
6
CONTINUOUS
10
111.288
20
-105.485
11
111.377
21
-105.639
0
LINE
8
BLACK
6
CONTINUOUS
10
111.377
20
-105.639
11
111.431
21
-105.808
0
LINE
8
BLACK
6
CONTINUOUS
10
111.431
20
-105.808
11
111.45
21
-105.985
0
LINE
8
BLACK
6
CONTINUOUS
10
111.45
20
-105.985
11
111.431
21
-106.162
0
LINE
8
BLACK
6
CONTINUOUS
10
111.431
20
-106.162
11
111.377
21
-106.331
0
LINE
8
BLACK
6
CONTINUOUS
10
111.377
20
-106.331
11
111.288
21
-106.485
0
LINE
8
BLACK
6
CONTINUOUS
10
111.288
20
-106.485
11
111.169
21
-106.617
0
LINE
8
BLACK
6
CONTINUOUS
10
111.169
20
-106.617
11
111.025
21
-106.721
0
LINE
8
BLACK
6
CONTINUOUS
10
111.025
20
-106.721
11
110.863
21
-106.793
0
LINE
8
BLACK
6
CONTINUOUS
10
110.863
20
-106.793
11
110.689
21
-106.83
0
LINE
8
BLACK
6
CONTINUOUS
10
110.689
20
-106.83
11
110.511
21
-106.83
0
LINE
8
BLACK
6
CONTINUOUS
10
110.511
20
-106.83
11
110.337
21
-106.793
0
LINE
8
BLACK
6
CONTINUOUS
10
110.337
20
-106.793
11
110.175
21
-106.721
0
LINE
8
BLACK
6
CONTINUOUS
10
110.175
20
-106.721
11
110.031
21
-106.617
0
LINE
8
BLACK
6
CONTINUOUS
10
110.031
20
-106.617
11
109.912
21
-106.485
0
LINE
8
BLACK
6
CONTINUOUS
10
109.912
20
-106.485
11
109.823
21
-106.331
0
LINE
8
BLACK
6
CONTINUOUS
10
109.823
20
-106.331
11
109.769
21
-106.162
0
LINE
8
BLACK
6
CONTINUOUS
10
109.769
20
-106.162
11
109.75
21
-105.985
0
LINE
8
BLACK
6
CONTINUOUS
10
109.75
20
-105.985
11
109.769
21
-105.808
0
LINE
8
BLACK
6
CONTINUOUS
10
109.769
20
-105.808
11
109.823
21
-105.639
0
LINE
8
BLACK
6
CONTINUOUS
10
109.823
20
-105.639
11
109.912
21
-105.485
0
LINE
8
BLACK
6
CONTINUOUS
10
109.912
20
-105.485
11
110.031
21
-105.353
0
LINE
8
BLACK
6
CONTINUOUS
10
110.031
20
-105.353
11
110.175
21
-105.249
0
LINE
8
BLACK
6
CONTINUOUS
10
110.175
20
-105.249
11
110.337
21
-105.177
0
LINE
8
BLACK
6
CONTINUOUS
10
110.337
20
-105.177
11
110.511
21
-105.14
0
LINE
8
BLACK
6
CONTINUOUS
10
110.511
20
-105.14
11
110.689
21
-105.14
0
LINE
8
BLACK
6
CONTINUOUS
10
110.689
20
-105.14
11
110.863
21
-105.177
0
LINE
8
BLACK
6
CONTINUOUS
10
126.103
20
-105.177
11
126.265
21
-105.249
0
LINE
8
BLACK
6
CONTINUOUS
10
126.265
20
-105.249
11
126.409
21
-105.353
0
LINE
8
BLACK
6
CONTINUOUS
10
126.409
20
-105.353
11
126.528
21
-105.485
0
LINE
8
BLACK
6
CONTINUOUS
10
126.528
20
-105.485
11
126.617
21
-105.639
0
LINE
8
BLACK
6
CONTINUOUS
10
126.617
20
-105.639
11
126.671
21
-105.808
0
LINE
8
BLACK
6
CONTINUOUS
10
126.671
20
-105.808
11
126.69
21
-105.985
0
LINE
8
BLACK
6
CONTINUOUS
10
126.69
20
-105.985
11
126.671
21
-106.162
0
LINE
8
BLACK
6
CONTINUOUS
10
126.671
20
-106.162
11
126.617
21
-106.331
0
LINE
8
BLACK
6
CONTINUOUS
10
126.617
20
-106.331
11
126.528
21
-106.485
0
LINE
8
BLACK
6
CONTINUOUS
10
126.528
20
-106.485
11
126.409
21
-106.617
0
LINE
8
BLACK
6
CONTINUOUS
10
126.409
20
-106.617
11
126.265
21
-106.721
0
LINE
8
BLACK
6
CONTINUOUS
10
126.265
20
-106.721
11
126.103
21
-106.793
0
LINE
8
BLACK
6
CONTINUOUS
10
126.103
20
-106.793
11
125.929
21
-106.83
0
LINE
8
BLACK
6
CONTINUOUS
10
125.929
20
-106.83
11
125.751
21
-106.83
0
LINE
8
BLACK
6
CONTINUOUS
10
125.751
20
-106.83
11
125.577
21
-106.793
0
LINE
8
BLACK
6
CONTINUOUS
10
125.577
20
-106.793
11
125.415
21
-106.721
0
LINE
8
BLACK
6
CONTINUOUS
10
125.415
20
-106.721
11
125.271
21
-106.617
0
LINE
8
BLACK
6
CONTINUOUS
10
125.271
20
-106.617
11
125.152
21
-106.485
0
LINE
8
BLACK
6
CONTINUOUS
10
125.152
20
-106.485
11
125.063
21
-106.331
0
LINE
8
BLACK
6
CONTINUOUS
10
125.063
20
-106.331
11
125.009
21
-106.162
0
LINE
8
BLACK
6
CONTINUOUS
10
125.009
20
-106.162
11
124.99
21
-105.985
0
LINE
8
BLACK
6
CONTINUOUS
10
124.99
20
-105.985
11
125.009
21
-105.808
0
LINE
8
BLACK
6
CONTINUOUS
10
125.009
20
-105.808
11
125.063
21
-105.639
0
LINE
8
BLACK
6
CONTINUOUS
10
125.063
20
-105.639
11
125.152
21
-105.485
0
LINE
8
BLACK
6
CONTINUOUS
10
125.152
20
-105.485
11
125.271
21
-105.353
0
LINE
8
BLACK
6
CONTINUOUS
10
125.271
20
-105.353
11
125.415
21
-105.249
0
LINE
8
BLACK
6
CONTINUOUS
10
125.415
20
-105.249
11
125.577
21
-105.177
0
LINE
8
BLACK
6
CONTINUOUS
10
125.577
20
-105.177
11
125.751
21
-105.14
0
LINE
8
BLACK
6
CONTINUOUS
10
125.751
20
-105.14
11
125.929
21
-105.14
0
LINE
8
BLACK
6
CONTINUOUS
10
125.929
20
-105.14
11
126.103
21
-105.177
0
LINE
8
BLACK
6
CONTINUOUS
10
108.323
20
-105.177
11
108.485
21
-105.249
0
LINE
8
BLACK
6
CONTINUOUS
10
108.485
20
-105.249
11
108.629
21
-105.353
0
LINE
8
BLACK
6
CONTINUOUS
10
108.629
20
-105.353
11
108.748
21
-105.485
0
LINE
8
BLACK
6
CONTINUOUS
10
108.748
20
-105.485
11
108.837
21
-105.639
0
LINE
8
BLACK
6
CONTINUOUS
10
108.837
20
-105.639
11
108.891
21
-105.808
0
LINE
8
BLACK
6
CONTINUOUS
10
108.891
20
-105.808
11
108.91
21
-105.985
0
LINE
8
BLACK
6
CONTINUOUS
10
108.91
20
-105.985
11
108.891
21
-106.162
0
LINE
8
BLACK
6
CONTINUOUS
10
108.891
20
-106.162
11
108.837
21
-106.331
0
LINE
8
BLACK
6
CONTINUOUS
10
108.837
20
-106.331
11
108.748
21
-106.485
0
LINE
8
BLACK
6
CONTINUOUS
10
108.748
20
-106.485
11
108.629
21
-106.617
0
LINE
8
BLACK
6
CONTINUOUS
10
108.629
20
-106.617
11
108.485
21
-106.721
0
LINE
8
BLACK
6
CONTINUOUS
10
108.485
20
-106.721
11
108.323
21
-106.793
0
LINE
8
BLACK
6
CONTINUOUS
10
108.323
20
-106.793
11
108.149
21
-106.83
0
LINE
8
BLACK
6
CONTINUOUS
10
108.149
20
-106.83
11
107.971
21
-106.83
0
LINE
8
BLACK
6
CONTINUOUS
10
107.971
20
-106.83
11
107.797
21
-106.793
0
LINE
8
BLACK
6
CONTINUOUS
10
107.797
20
-106.793
11
107.635
21
-106.721
0
LINE
8
BLACK
6
CONTINUOUS
10
107.635
20
-106.721
11
107.491
21
-106.617
0
LINE
8
BLACK
6
CONTINUOUS
10
107.491
20
-106.617
11
107.372
21
-106.485
0
LINE
8
BLACK
6
CONTINUOUS
10
107.372
20
-106.485
11
107.283
21
-106.331
0
LINE
8
BLACK
6
CONTINUOUS
10
107.283
20
-106.331
11
107.229
21
-106.162
0
LINE
8
BLACK
6
CONTINUOUS
10
107.229
20
-106.162
11
107.21
21
-105.985
0
LINE
8
BLACK
6
CONTINUOUS
10
107.21
20
-105.985
11
107.229
21
-105.808
0
LINE
8
BLACK
6
CONTINUOUS
10
107.229
20
-105.808
11
107.283
21
-105.639
0
LINE
8
BLACK
6
CONTINUOUS
10
107.283
20
-105.639
11
107.372
21
-105.485
0
LINE
8
BLACK
6
CONTINUOUS
10
107.372
20
-105.485
11
107.491
21
-105.353
0
LINE
8
BLACK
6
CONTINUOUS
10
107.491
20
-105.353
11
107.635
21
-105.249
0
LINE
8
BLACK
6
CONTINUOUS
10
107.635
20
-105.249
11
107.797
21
-105.177
0
LINE
8
BLACK
6
CONTINUOUS
10
107.797
20
-105.177
11
107.971
21
-105.14
0
LINE
8
BLACK
6
CONTINUOUS
10
107.971
20
-105.14
11
108.149
21
-105.14
0
LINE
8
BLACK
6
CONTINUOUS
10
108.149
20
-105.14
11
108.323
21
-105.177
0
LINE
8
BLACK
6
CONTINUOUS
10
123.563
20
-105.177
11
123.725
21
-105.249
0
LINE
8
BLACK
6
CONTINUOUS
10
123.725
20
-105.249
11
123.869
21
-105.353
0
LINE
8
BLACK
6
CONTINUOUS
10
123.869
20
-105.353
11
123.988
21
-105.485
0
LINE
8
BLACK
6
CONTINUOUS
10
123.988
20
-105.485
11
124.077
21
-105.639
0
LINE
8
BLACK
6
CONTINUOUS
10
124.077
20
-105.639
11
124.131
21
-105.808
0
LINE
8
BLACK
6
CONTINUOUS
10
124.131
20
-105.808
11
124.15
21
-105.985
0
LINE
8
BLACK
6
CONTINUOUS
10
124.15
20
-105.985
11
124.131
21
-106.162
0
LINE
8
BLACK
6
CONTINUOUS
10
124.131
20
-106.162
11
124.077
21
-106.331
0
LINE
8
BLACK
6
CONTINUOUS
10
124.077
20
-106.331
11
123.988
21
-106.485
0
LINE
8
BLACK
6
CONTINUOUS
10
123.988
20
-106.485
11
123.869
21
-106.617
0
LINE
8
BLACK
6
CONTINUOUS
10
123.869
20
-106.617
11
123.725
21
-106.721
0
LINE
8
BLACK
6
CONTINUOUS
10
123.725
20
-106.721
11
123.563
21
-106.793
0
LINE
8
BLACK
6
CONTINUOUS
10
123.563
20
-106.793
11
123.389
21
-106.83
0
LINE
8
BLACK
6
CONTINUOUS
10
123.389
20
-106.83
11
123.211
21
-106.83
0
LINE
8
BLACK
6
CONTINUOUS
10
123.211
20
-106.83
11
123.037
21
-106.793
0
LINE
8
BLACK
6
CONTINUOUS
10
123.037
20
-106.793
11
122.875
21
-106.721
0
LINE
8
BLACK
6
CONTINUOUS
10
122.875
20
-106.721
11
122.731
21
-106.617
0
LINE
8
BLACK
6
CONTINUOUS
10
122.731
20
-106.617
11
122.612
21
-106.485
0
LINE
8
BLACK
6
CONTINUOUS
10
122.612
20
-106.485
11
122.523
21
-106.331
0
LINE
8
BLACK
6
CONTINUOUS
10
122.523
20
-106.331
11
122.469
21
-106.162
0
LINE
8
BLACK
6
CONTINUOUS
10
122.469
20
-106.162
11
122.45
21
-105.985
0
LINE
8
BLACK
6
CONTINUOUS
10
122.45
20
-105.985
11
122.469
21
-105.808
0
LINE
8
BLACK
6
CONTINUOUS
10
122.469
20
-105.808
11
122.523
21
-105.639
0
LINE
8
BLACK
6
CONTINUOUS
10
122.523
20
-105.639
11
122.612
21
-105.485
0
LINE
8
BLACK
6
CONTINUOUS
10
122.612
20
-105.485
11
122.731
21
-105.353
0
LINE
8
BLACK
6
CONTINUOUS
10
122.731
20
-105.353
11
122.875
21
-105.249
0
LINE
8
BLACK
6
CONTINUOUS
10
122.875
20
-105.249
11
123.037
21
-105.177
0
LINE
8
BLACK
6
CONTINUOUS
10
123.037
20
-105.177
11
123.211
21
-105.14
0
LINE
8
BLACK
6
CONTINUOUS
10
123.211
20
-105.14
11
123.389
21
-105.14
0
LINE
8
BLACK
6
CONTINUOUS
10
123.389
20
-105.14
11
123.563
21
-105.177
0
LINE
8
BLACK
6
CONTINUOUS
10
121.023
20
-105.177
11
121.185
21
-105.249
0
LINE
8
BLACK
6
CONTINUOUS
10
121.185
20
-105.249
11
121.329
21
-105.353
0
LINE
8
BLACK
6
CONTINUOUS
10
121.329
20
-105.353
11
121.448
21
-105.485
0
LINE
8
BLACK
6
CONTINUOUS
10
121.448
20
-105.485
11
121.537
21
-105.639
0
LINE
8
BLACK
6
CONTINUOUS
10
121.537
20
-105.639
11
121.591
21
-105.808
0
LINE
8
BLACK
6
CONTINUOUS
10
121.591
20
-105.808
11
121.61
21
-105.985
0
LINE
8
BLACK
6
CONTINUOUS
10
121.61
20
-105.985
11
121.591
21
-106.162
0
LINE
8
BLACK
6
CONTINUOUS
10
121.591
20
-106.162
11
121.537
21
-106.331
0
LINE
8
BLACK
6
CONTINUOUS
10
121.537
20
-106.331
11
121.448
21
-106.485
0
LINE
8
BLACK
6
CONTINUOUS
10
121.448
20
-106.485
11
121.329
21
-106.617
0
LINE
8
BLACK
6
CONTINUOUS
10
121.329
20
-106.617
11
121.185
21
-106.721
0
LINE
8
BLACK
6
CONTINUOUS
10
121.185
20
-106.721
11
121.023
21
-106.793
0
LINE
8
BLACK
6
CONTINUOUS
10
121.023
20
-106.793
11
120.849
21
-106.83
0
LINE
8
BLACK
6
CONTINUOUS
10
120.849
20
-106.83
11
120.671
21
-106.83
0
LINE
8
BLACK
6
CONTINUOUS
10
120.671
20
-106.83
11
120.497
21
-106.793
0
LINE
8
BLACK
6
CONTINUOUS
10
120.497
20
-106.793
11
120.335
21
-106.721
0
LINE
8
BLACK
6
CONTINUOUS
10
120.335
20
-106.721
11
120.191
21
-106.617
0
LINE
8
BLACK
6
CONTINUOUS
10
120.191
20
-106.617
11
120.072
21
-106.485
0
LINE
8
BLACK
6
CONTINUOUS
10
120.072
20
-106.485
11
119.983
21
-106.331
0
LINE
8
BLACK
6
CONTINUOUS
10
119.983
20
-106.331
11
119.929
21
-106.162
0
LINE
8
BLACK
6
CONTINUOUS
10
119.929
20
-106.162
11
119.91
21
-105.985
0
LINE
8
BLACK
6
CONTINUOUS
10
119.91
20
-105.985
11
119.929
21
-105.808
0
LINE
8
BLACK
6
CONTINUOUS
10
119.929
20
-105.808
11
119.983
21
-105.639
0
LINE
8
BLACK
6
CONTINUOUS
10
119.983
20
-105.639
11
120.072
21
-105.485
0
LINE
8
BLACK
6
CONTINUOUS
10
120.072
20
-105.485
11
120.191
21
-105.353
0
LINE
8
BLACK
6
CONTINUOUS
10
120.191
20
-105.353
11
120.335
21
-105.249
0
LINE
8
BLACK
6
CONTINUOUS
10
120.335
20
-105.249
11
120.497
21
-105.177
0
LINE
8
BLACK
6
CONTINUOUS
10
120.497
20
-105.177
11
120.671
21
-105.14
0
LINE
8
BLACK
6
CONTINUOUS
10
120.671
20
-105.14
11
120.849
21
-105.14
0
LINE
8
BLACK
6
CONTINUOUS
10
120.849
20
-105.14
11
121.023
21
-105.177
0
LINE
8
BLACK
6
CONTINUOUS
10
133.723
20
-105.177
11
133.885
21
-105.249
0
LINE
8
BLACK
6
CONTINUOUS
10
133.885
20
-105.249
11
134.029
21
-105.353
0
LINE
8
BLACK
6
CONTINUOUS
10
134.029
20
-105.353
11
134.148
21
-105.485
0
LINE
8
BLACK
6
CONTINUOUS
10
134.148
20
-105.485
11
134.237
21
-105.639
0
LINE
8
BLACK
6
CONTINUOUS
10
134.237
20
-105.639
11
134.291
21
-105.808
0
LINE
8
BLACK
6
CONTINUOUS
10
134.291
20
-105.808
11
134.31
21
-105.985
0
LINE
8
BLACK
6
CONTINUOUS
10
134.31
20
-105.985
11
134.291
21
-106.162
0
LINE
8
BLACK
6
CONTINUOUS
10
134.291
20
-106.162
11
134.237
21
-106.331
0
LINE
8
BLACK
6
CONTINUOUS
10
134.237
20
-106.331
11
134.148
21
-106.485
0
LINE
8
BLACK
6
CONTINUOUS
10
134.148
20
-106.485
11
134.029
21
-106.617
0
LINE
8
BLACK
6
CONTINUOUS
10
134.029
20
-106.617
11
133.885
21
-106.721
0
LINE
8
BLACK
6
CONTINUOUS
10
133.885
20
-106.721
11
133.723
21
-106.793
0
LINE
8
BLACK
6
CONTINUOUS
10
133.723
20
-106.793
11
133.549
21
-106.83
0
LINE
8
BLACK
6
CONTINUOUS
10
133.549
20
-106.83
11
133.371
21
-106.83
0
LINE
8
BLACK
6
CONTINUOUS
10
133.371
20
-106.83
11
133.197
21
-106.793
0
LINE
8
BLACK
6
CONTINUOUS
10
133.197
20
-106.793
11
133.035
21
-106.721
0
LINE
8
BLACK
6
CONTINUOUS
10
133.035
20
-106.721
11
132.891
21
-106.617
0
LINE
8
BLACK
6
CONTINUOUS
10
132.891
20
-106.617
11
132.772
21
-106.485
0
LINE
8
BLACK
6
CONTINUOUS
10
132.772
20
-106.485
11
132.683
21
-106.331
0
LINE
8
BLACK
6
CONTINUOUS
10
132.683
20
-106.331
11
132.629
21
-106.162
0
LINE
8
BLACK
6
CONTINUOUS
10
132.629
20
-106.162
11
132.61
21
-105.985
0
LINE
8
BLACK
6
CONTINUOUS
10
132.61
20
-105.985
11
132.629
21
-105.808
0
LINE
8
BLACK
6
CONTINUOUS
10
132.629
20
-105.808
11
132.683
21
-105.639
0
LINE
8
BLACK
6
CONTINUOUS
10
132.683
20
-105.639
11
132.772
21
-105.485
0
LINE
8
BLACK
6
CONTINUOUS
10
132.772
20
-105.485
11
132.891
21
-105.353
0
LINE
8
BLACK
6
CONTINUOUS
10
132.891
20
-105.353
11
133.035
21
-105.249
0
LINE
8
BLACK
6
CONTINUOUS
10
133.035
20
-105.249
11
133.197
21
-105.177
0
LINE
8
BLACK
6
CONTINUOUS
10
133.197
20
-105.177
11
133.371
21
-105.14
0
LINE
8
BLACK
6
CONTINUOUS
10
133.371
20
-105.14
11
133.549
21
-105.14
0
LINE
8
BLACK
6
CONTINUOUS
10
133.549
20
-105.14
11
133.723
21
-105.177
0
LINE
8
BLACK
6
CONTINUOUS
10
118.483
20
-105.177
11
118.645
21
-105.249
0
LINE
8
BLACK
6
CONTINUOUS
10
118.645
20
-105.249
11
118.789
21
-105.353
0
LINE
8
BLACK
6
CONTINUOUS
10
118.789
20
-105.353
11
118.908
21
-105.485
0
LINE
8
BLACK
6
CONTINUOUS
10
118.908
20
-105.485
11
118.997
21
-105.639
0
LINE
8
BLACK
6
CONTINUOUS
10
118.997
20
-105.639
11
119.051
21
-105.808
0
LINE
8
BLACK
6
CONTINUOUS
10
119.051
20
-105.808
11
119.07
21
-105.985
0
LINE
8
BLACK
6
CONTINUOUS
10
119.07
20
-105.985
11
119.051
21
-106.162
0
LINE
8
BLACK
6
CONTINUOUS
10
119.051
20
-106.162
11
118.997
21
-106.331
0
LINE
8
BLACK
6
CONTINUOUS
10
118.997
20
-106.331
11
118.908
21
-106.485
0
LINE
8
BLACK
6
CONTINUOUS
10
118.908
20
-106.485
11
118.789
21
-106.617
0
LINE
8
BLACK
6
CONTINUOUS
10
118.789
20
-106.617
11
118.645
21
-106.721
0
LINE
8
BLACK
6
CONTINUOUS
10
118.645
20
-106.721
11
118.483
21
-106.793
0
LINE
8
BLACK
6
CONTINUOUS
10
118.483
20
-106.793
11
118.309
21
-106.83
0
LINE
8
BLACK
6
CONTINUOUS
10
118.309
20
-106.83
11
118.131
21
-106.83
0
LINE
8
BLACK
6
CONTINUOUS
10
118.131
20
-106.83
11
117.957
21
-106.793
0
LINE
8
BLACK
6
CONTINUOUS
10
117.957
20
-106.793
11
117.795
21
-106.721
0
LINE
8
BLACK
6
CONTINUOUS
10
117.795
20
-106.721
11
117.651
21
-106.617
0
LINE
8
BLACK
6
CONTINUOUS
10
117.651
20
-106.617
11
117.532
21
-106.485
0
LINE
8
BLACK
6
CONTINUOUS
10
117.532
20
-106.485
11
117.443
21
-106.331
0
LINE
8
BLACK
6
CONTINUOUS
10
117.443
20
-106.331
11
117.389
21
-106.162
0
LINE
8
BLACK
6
CONTINUOUS
10
117.389
20
-106.162
11
117.37
21
-105.985
0
LINE
8
BLACK
6
CONTINUOUS
10
117.37
20
-105.985
11
117.389
21
-105.808
0
LINE
8
BLACK
6
CONTINUOUS
10
117.389
20
-105.808
11
117.443
21
-105.639
0
LINE
8
BLACK
6
CONTINUOUS
10
117.443
20
-105.639
11
117.532
21
-105.485
0
LINE
8
BLACK
6
CONTINUOUS
10
117.532
20
-105.485
11
117.651
21
-105.353
0
LINE
8
BLACK
6
CONTINUOUS
10
117.651
20
-105.353
11
117.795
21
-105.249
0
LINE
8
BLACK
6
CONTINUOUS
10
117.795
20
-105.249
11
117.957
21
-105.177
0
LINE
8
BLACK
6
CONTINUOUS
10
117.957
20
-105.177
11
118.131
21
-105.14
0
LINE
8
BLACK
6
CONTINUOUS
10
118.131
20
-105.14
11
118.309
21
-105.14
0
LINE
8
BLACK
6
CONTINUOUS
10
118.309
20
-105.14
11
118.483
21
-105.177
0
LINE
8
BLACK
6
CONTINUOUS
10
115.943
20
-105.177
11
116.105
21
-105.249
0
LINE
8
BLACK
6
CONTINUOUS
10
116.105
20
-105.249
11
116.249
21
-105.353
0
LINE
8
BLACK
6
CONTINUOUS
10
116.249
20
-105.353
11
116.368
21
-105.485
0
LINE
8
BLACK
6
CONTINUOUS
10
116.368
20
-105.485
11
116.457
21
-105.639
0
LINE
8
BLACK
6
CONTINUOUS
10
116.457
20
-105.639
11
116.511
21
-105.808
0
LINE
8
BLACK
6
CONTINUOUS
10
116.511
20
-105.808
11
116.53
21
-105.985
0
LINE
8
BLACK
6
CONTINUOUS
10
116.53
20
-105.985
11
116.511
21
-106.162
0
LINE
8
BLACK
6
CONTINUOUS
10
116.511
20
-106.162
11
116.457
21
-106.331
0
LINE
8
BLACK
6
CONTINUOUS
10
116.457
20
-106.331
11
116.368
21
-106.485
0
LINE
8
BLACK
6
CONTINUOUS
10
116.368
20
-106.485
11
116.249
21
-106.617
0
LINE
8
BLACK
6
CONTINUOUS
10
116.249
20
-106.617
11
116.105
21
-106.721
0
LINE
8
BLACK
6
CONTINUOUS
10
116.105
20
-106.721
11
115.943
21
-106.793
0
LINE
8
BLACK
6
CONTINUOUS
10
115.943
20
-106.793
11
115.769
21
-106.83
0
LINE
8
BLACK
6
CONTINUOUS
10
115.769
20
-106.83
11
115.591
21
-106.83
0
LINE
8
BLACK
6
CONTINUOUS
10
115.591
20
-106.83
11
115.417
21
-106.793
0
LINE
8
BLACK
6
CONTINUOUS
10
115.417
20
-106.793
11
115.255
21
-106.721
0
LINE
8
BLACK
6
CONTINUOUS
10
115.255
20
-106.721
11
115.111
21
-106.617
0
LINE
8
BLACK
6
CONTINUOUS
10
115.111
20
-106.617
11
114.992
21
-106.485
0
LINE
8
BLACK
6
CONTINUOUS
10
114.992
20
-106.485
11
114.903
21
-106.331
0
LINE
8
BLACK
6
CONTINUOUS
10
114.903
20
-106.331
11
114.849
21
-106.162
0
LINE
8
BLACK
6
CONTINUOUS
10
114.849
20
-106.162
11
114.83
21
-105.985
0
LINE
8
BLACK
6
CONTINUOUS
10
114.83
20
-105.985
11
114.849
21
-105.808
0
LINE
8
BLACK
6
CONTINUOUS
10
114.849
20
-105.808
11
114.903
21
-105.639
0
LINE
8
BLACK
6
CONTINUOUS
10
114.903
20
-105.639
11
114.992
21
-105.485
0
LINE
8
BLACK
6
CONTINUOUS
10
114.992
20
-105.485
11
115.111
21
-105.353
0
LINE
8
BLACK
6
CONTINUOUS
10
115.111
20
-105.353
11
115.255
21
-105.249
0
LINE
8
BLACK
6
CONTINUOUS
10
115.255
20
-105.249
11
115.417
21
-105.177
0
LINE
8
BLACK
6
CONTINUOUS
10
115.417
20
-105.177
11
115.591
21
-105.14
0
LINE
8
BLACK
6
CONTINUOUS
10
115.591
20
-105.14
11
115.769
21
-105.14
0
LINE
8
BLACK
6
CONTINUOUS
10
115.769
20
-105.14
11
115.943
21
-105.177
0
LINE
8
BLACK
6
CONTINUOUS
10
113.403
20
-105.177
11
113.565
21
-105.249
0
LINE
8
BLACK
6
CONTINUOUS
10
113.565
20
-105.249
11
113.709
21
-105.353
0
LINE
8
BLACK
6
CONTINUOUS
10
113.709
20
-105.353
11
113.828
21
-105.485
0
LINE
8
BLACK
6
CONTINUOUS
10
113.828
20
-105.485
11
113.917
21
-105.639
0
LINE
8
BLACK
6
CONTINUOUS
10
113.917
20
-105.639
11
113.971
21
-105.808
0
LINE
8
BLACK
6
CONTINUOUS
10
113.971
20
-105.808
11
113.99
21
-105.985
0
LINE
8
BLACK
6
CONTINUOUS
10
113.99
20
-105.985
11
113.971
21
-106.162
0
LINE
8
BLACK
6
CONTINUOUS
10
113.971
20
-106.162
11
113.917
21
-106.331
0
LINE
8
BLACK
6
CONTINUOUS
10
113.917
20
-106.331
11
113.828
21
-106.485
0
LINE
8
BLACK
6
CONTINUOUS
10
113.828
20
-106.485
11
113.709
21
-106.617
0
LINE
8
BLACK
6
CONTINUOUS
10
113.709
20
-106.617
11
113.565
21
-106.721
0
LINE
8
BLACK
6
CONTINUOUS
10
113.565
20
-106.721
11
113.403
21
-106.793
0
LINE
8
BLACK
6
CONTINUOUS
10
113.403
20
-106.793
11
113.229
21
-106.83
0
LINE
8
BLACK
6
CONTINUOUS
10
113.229
20
-106.83
11
113.051
21
-106.83
0
LINE
8
BLACK
6
CONTINUOUS
10
113.051
20
-106.83
11
112.877
21
-106.793
0
LINE
8
BLACK
6
CONTINUOUS
10
112.877
20
-106.793
11
112.715
21
-106.721
0
LINE
8
BLACK
6
CONTINUOUS
10
112.715
20
-106.721
11
112.571
21
-106.617
0
LINE
8
BLACK
6
CONTINUOUS
10
112.571
20
-106.617
11
112.452
21
-106.485
0
LINE
8
BLACK
6
CONTINUOUS
10
112.452
20
-106.485
11
112.363
21
-106.331
0
LINE
8
BLACK
6
CONTINUOUS
10
112.363
20
-106.331
11
112.309
21
-106.162
0
LINE
8
BLACK
6
CONTINUOUS
10
112.309
20
-106.162
11
112.29
21
-105.985
0
LINE
8
BLACK
6
CONTINUOUS
10
112.29
20
-105.985
11
112.309
21
-105.808
0
LINE
8
BLACK
6
CONTINUOUS
10
112.309
20
-105.808
11
112.363
21
-105.639
0
LINE
8
BLACK
6
CONTINUOUS
10
112.363
20
-105.639
11
112.452
21
-105.485
0
LINE
8
BLACK
6
CONTINUOUS
10
112.452
20
-105.485
11
112.571
21
-105.353
0
LINE
8
BLACK
6
CONTINUOUS
10
112.571
20
-105.353
11
112.715
21
-105.249
0
LINE
8
BLACK
6
CONTINUOUS
10
112.715
20
-105.249
11
112.877
21
-105.177
0
LINE
8
BLACK
6
CONTINUOUS
10
112.877
20
-105.177
11
113.051
21
-105.14
0
LINE
8
BLACK
6
CONTINUOUS
10
113.051
20
-105.14
11
113.229
21
-105.14
0
LINE
8
BLACK
6
CONTINUOUS
10
113.229
20
-105.14
11
113.403
21
-105.177
0
LINE
8
BLACK
6
CONTINUOUS
10
101.081
20
-103.355
11
101.233
21
-103.393
0
LINE
8
BLACK
6
CONTINUOUS
10
101.233
20
-103.393
11
101.371
21
-103.466
0
LINE
8
BLACK
6
CONTINUOUS
10
101.371
20
-103.466
11
101.488
21
-103.57
0
LINE
8
BLACK
6
CONTINUOUS
10
101.488
20
-103.57
11
101.576
21
-103.699
0
LINE
8
BLACK
6
CONTINUOUS
10
101.576
20
-103.699
11
101.631
21
-103.845
0
LINE
8
BLACK
6
CONTINUOUS
10
101.631
20
-103.845
11
101.65
21
-104
0
LINE
8
BLACK
6
CONTINUOUS
10
101.65
20
-104
11
101.65
21
-104.014
0
LINE
8
BLACK
6
CONTINUOUS
10
101.65
20
-104.014
11
101.628
21
-104.168
0
LINE
8
BLACK
6
CONTINUOUS
10
101.628
20
-104.168
11
101.57
21
-104.313
0
LINE
8
BLACK
6
CONTINUOUS
10
101.57
20
-104.313
11
101.478
21
-104.44
0
LINE
8
BLACK
6
CONTINUOUS
10
101.478
20
-104.44
11
101.36
21
-104.541
0
LINE
8
BLACK
6
CONTINUOUS
10
101.36
20
-104.541
11
101.22
21
-104.612
0
LINE
8
BLACK
6
CONTINUOUS
10
101.22
20
-104.612
11
101.068
21
-104.646
0
LINE
8
BLACK
6
CONTINUOUS
10
101.068
20
-104.646
11
100.912
21
-104.644
0
LINE
8
BLACK
6
CONTINUOUS
10
100.912
20
-104.644
11
100.761
21
-104.604
0
LINE
8
BLACK
6
CONTINUOUS
10
100.761
20
-104.604
11
100.623
21
-104.53
0
LINE
8
BLACK
6
CONTINUOUS
10
100.623
20
-104.53
11
100.508
21
-104.425
0
LINE
8
BLACK
6
CONTINUOUS
10
100.508
20
-104.425
11
100.421
21
-104.295
0
LINE
8
BLACK
6
CONTINUOUS
10
100.421
20
-104.295
11
100.367
21
-104.148
0
LINE
8
BLACK
6
CONTINUOUS
10
100.367
20
-104.148
11
100.35
21
-103.993
0
LINE
8
BLACK
6
CONTINUOUS
10
100.35
20
-103.993
11
100.37
21
-103.838
0
LINE
8
BLACK
6
CONTINUOUS
10
100.37
20
-103.838
11
100.427
21
-103.693
0
LINE
8
BLACK
6
CONTINUOUS
10
100.427
20
-103.693
11
100.517
21
-103.565
0
LINE
8
BLACK
6
CONTINUOUS
10
100.517
20
-103.565
11
100.635
21
-103.462
0
LINE
8
BLACK
6
CONTINUOUS
10
100.635
20
-103.462
11
100.773
21
-103.391
0
LINE
8
BLACK
6
CONTINUOUS
10
100.773
20
-103.391
11
100.925
21
-103.354
0
LINE
8
BLACK
6
CONTINUOUS
10
100.925
20
-103.354
11
101.081
21
-103.355
0
LINE
8
BLACK
6
CONTINUOUS
10
109.373
20
-100.108
11
109.523
21
-100.151
0
LINE
8
BLACK
6
CONTINUOUS
10
109.523
20
-100.151
11
109.658
21
-100.231
0
LINE
8
BLACK
6
CONTINUOUS
10
109.658
20
-100.231
11
109.769
21
-100.342
0
LINE
8
BLACK
6
CONTINUOUS
10
109.769
20
-100.342
11
109.849
21
-100.477
0
LINE
8
BLACK
6
CONTINUOUS
10
109.849
20
-100.477
11
109.892
21
-100.627
0
LINE
8
BLACK
6
CONTINUOUS
10
109.892
20
-100.627
11
109.9
21
-100.725
0
LINE
8
BLACK
6
CONTINUOUS
10
109.9
20
-100.725
11
109.9
21
-101.975
0
LINE
8
BLACK
6
CONTINUOUS
10
109.9
20
-101.975
11
109.892
21
-102.073
0
LINE
8
BLACK
6
CONTINUOUS
10
109.892
20
-102.073
11
109.849
21
-102.223
0
LINE
8
BLACK
6
CONTINUOUS
10
109.849
20
-102.223
11
109.769
21
-102.358
0
LINE
8
BLACK
6
CONTINUOUS
10
109.769
20
-102.358
11
109.658
21
-102.469
0
LINE
8
BLACK
6
CONTINUOUS
10
109.658
20
-102.469
11
109.523
21
-102.549
0
LINE
8
BLACK
6
CONTINUOUS
10
109.523
20
-102.549
11
109.373
21
-102.592
0
LINE
8
BLACK
6
CONTINUOUS
10
109.373
20
-102.592
11
109.275
21
-102.6
0
LINE
8
BLACK
6
CONTINUOUS
10
109.275
20
-102.6
11
108.025
21
-102.6
0
LINE
8
BLACK
6
CONTINUOUS
10
108.025
20
-102.6
11
107.927
21
-102.592
0
LINE
8
BLACK
6
CONTINUOUS
10
107.927
20
-102.592
11
107.777
21
-102.549
0
LINE
8
BLACK
6
CONTINUOUS
10
107.777
20
-102.549
11
107.642
21
-102.469
0
LINE
8
BLACK
6
CONTINUOUS
10
107.642
20
-102.469
11
107.531
21
-102.358
0
LINE
8
BLACK
6
CONTINUOUS
10
107.531
20
-102.358
11
107.451
21
-102.223
0
LINE
8
BLACK
6
CONTINUOUS
10
107.451
20
-102.223
11
107.408
21
-102.073
0
LINE
8
BLACK
6
CONTINUOUS
10
107.408
20
-102.073
11
107.4
21
-101.975
0
LINE
8
BLACK
6
CONTINUOUS
10
107.4
20
-101.975
11
107.4
21
-100.725
0
LINE
8
BLACK
6
CONTINUOUS
10
107.4
20
-100.725
11
107.408
21
-100.627
0
LINE
8
BLACK
6
CONTINUOUS
10
107.408
20
-100.627
11
107.451
21
-100.477
0
LINE
8
BLACK
6
CONTINUOUS
10
107.451
20
-100.477
11
107.531
21
-100.342
0
LINE
8
BLACK
6
CONTINUOUS
10
107.531
20
-100.342
11
107.642
21
-100.231
0
LINE
8
BLACK
6
CONTINUOUS
10
107.642
20
-100.231
11
107.777
21
-100.151
0
LINE
8
BLACK
6
CONTINUOUS
10
107.777
20
-100.151
11
107.927
21
-100.108
0
LINE
8
BLACK
6
CONTINUOUS
10
107.927
20
-100.108
11
108.025
21
-100.1
0
LINE
8
BLACK
6
CONTINUOUS
10
108.025
20
-100.1
11
109.275
21
-100.1
0
LINE
8
BLACK
6
CONTINUOUS
10
109.275
20
-100.1
11
109.373
21
-100.108
0
LINE
8
BLACK
6
CONTINUOUS
10
109.373
20
-95.1077
11
109.523
21
-95.1514
0
LINE
8
BLACK
6
CONTINUOUS
10
109.523
20
-95.1514
11
109.658
21
-95.2312
0
LINE
8
BLACK
6
CONTINUOUS
10
109.658
20
-95.2312
11
109.769
21
-95.3419
0
LINE
8
BLACK
6
CONTINUOUS
10
109.769
20
-95.3419
11
109.849
21
-95.4768
0
LINE
8
BLACK
6
CONTINUOUS
10
109.849
20
-95.4768
11
109.892
21
-95.6272
0
LINE
8
BLACK
6
CONTINUOUS
10
109.892
20
-95.6272
11
109.9
21
-95.725
0
LINE
8
BLACK
6
CONTINUOUS
10
109.9
20
-95.725
11
109.9
21
-96.975
0
LINE
8
BLACK
6
CONTINUOUS
10
109.9
20
-96.975
11
109.892
21
-97.0728
0
LINE
8
BLACK
6
CONTINUOUS
10
109.892
20
-97.0728
11
109.849
21
-97.2232
0
LINE
8
BLACK
6
CONTINUOUS
10
109.849
20
-97.2232
11
109.769
21
-97.3581
0
LINE
8
BLACK
6
CONTINUOUS
10
109.769
20
-97.3581
11
109.658
21
-97.4688
0
LINE
8
BLACK
6
CONTINUOUS
10
109.658
20
-97.4688
11
109.523
21
-97.5486
0
LINE
8
BLACK
6
CONTINUOUS
10
109.523
20
-97.5486
11
109.373
21
-97.5923
0
LINE
8
BLACK
6
CONTINUOUS
10
109.373
20
-97.5923
11
109.275
21
-97.6
0
LINE
8
BLACK
6
CONTINUOUS
10
109.275
20
-97.6
11
108.025
21
-97.6
0
LINE
8
BLACK
6
CONTINUOUS
10
108.025
20
-97.6
11
107.927
21
-97.5923
0
LINE
8
BLACK
6
CONTINUOUS
10
107.927
20
-97.5923
11
107.777
21
-97.5486
0
LINE
8
BLACK
6
CONTINUOUS
10
107.777
20
-97.5486
11
107.642
21
-97.4688
0
LINE
8
BLACK
6
CONTINUOUS
10
107.642
20
-97.4688
11
107.531
21
-97.3581
0
LINE
8
BLACK
6
CONTINUOUS
10
107.531
20
-97.3581
11
107.451
21
-97.2232
0
LINE
8
BLACK
6
CONTINUOUS
10
107.451
20
-97.2232
11
107.408
21
-97.0728
0
LINE
8
BLACK
6
CONTINUOUS
10
107.408
20
-97.0728
11
107.4
21
-96.975
0
LINE
8
BLACK
6
CONTINUOUS
10
107.4
20
-96.975
11
107.4
21
-95.725
0
LINE
8
BLACK
6
CONTINUOUS
10
107.4
20
-95.725
11
107.408
21
-95.6272
0
LINE
8
BLACK
6
CONTINUOUS
10
107.408
20
-95.6272
11
107.451
21
-95.4768
0
LINE
8
BLACK
6
CONTINUOUS
10
107.451
20
-95.4768
11
107.531
21
-95.3419
0
LINE
8
BLACK
6
CONTINUOUS
10
107.531
20
-95.3419
11
107.642
21
-95.2312
0
LINE
8
BLACK
6
CONTINUOUS
10
107.642
20
-95.2312
11
107.777
21
-95.1514
0
LINE
8
BLACK
6
CONTINUOUS
10
107.777
20
-95.1514
11
107.927
21
-95.1077
0
LINE
8
BLACK
6
CONTINUOUS
10
107.927
20
-95.1077
11
108.025
21
-95.1
0
LINE
8
BLACK
6
CONTINUOUS
10
108.025
20
-95.1
11
109.275
21
-95.1
0
LINE
8
BLACK
6
CONTINUOUS
10
109.275
20
-95.1
11
109.373
21
-95.1077
0
LINE
8
BLACK
6
CONTINUOUS
10
104.8
20
-91.35
11
103.2
21
-91.35
0
LINE
8
BLACK
6
CONTINUOUS
10
103.2
20
-91.35
11
103.2
21
-89.75
0
LINE
8
BLACK
6
CONTINUOUS
10
103.2
20
-89.75
11
104.8
21
-89.75
0
LINE
8
BLACK
6
CONTINUOUS
10
104.8
20
-89.75
11
104.8
21
-91.35
0
LINE
8
BLACK
6
CONTINUOUS
10
141.745
20
-89.6553
11
141.924
21
-89.6953
0
LINE
8
BLACK
6
CONTINUOUS
10
141.924
20
-89.6953
11
142.09
21
-89.7729
0
LINE
8
BLACK
6
CONTINUOUS
10
142.09
20
-89.7729
11
142.236
21
-89.8845
0
LINE
8
BLACK
6
CONTINUOUS
10
142.236
20
-89.8845
11
142.355
21
-90.0247
0
LINE
8
BLACK
6
CONTINUOUS
10
142.355
20
-90.0247
11
142.44
21
-90.1871
0
LINE
8
BLACK
6
CONTINUOUS
10
142.44
20
-90.1871
11
142.489
21
-90.3641
0
LINE
8
BLACK
6
CONTINUOUS
10
142.489
20
-90.3641
11
142.499
21
-90.5474
0
LINE
8
BLACK
6
CONTINUOUS
10
142.499
20
-90.5474
11
142.469
21
-90.7286
0
LINE
8
BLACK
6
CONTINUOUS
10
142.469
20
-90.7286
11
142.401
21
-90.8991
0
LINE
8
BLACK
6
CONTINUOUS
10
142.401
20
-90.8991
11
142.297
21
-91.0509
0
LINE
8
BLACK
6
CONTINUOUS
10
142.297
20
-91.0509
11
142.164
21
-91.1771
0
LINE
8
BLACK
6
CONTINUOUS
10
142.164
20
-91.1771
11
142.007
21
-91.2716
0
LINE
8
BLACK
6
CONTINUOUS
10
142.007
20
-91.2716
11
141.833
21
-91.3302
0
LINE
8
BLACK
6
CONTINUOUS
10
141.833
20
-91.3302
11
141.65
21
-91.35
0
LINE
8
BLACK
6
CONTINUOUS
10
141.65
20
-91.35
11
141.4
21
-91.35
0
LINE
8
BLACK
6
CONTINUOUS
10
141.4
20
-91.35
11
141.305
21
-91.3447
0
LINE
8
BLACK
6
CONTINUOUS
10
141.305
20
-91.3447
11
141.126
21
-91.3047
0
LINE
8
BLACK
6
CONTINUOUS
10
141.126
20
-91.3047
11
140.96
21
-91.2271
0
LINE
8
BLACK
6
CONTINUOUS
10
140.96
20
-91.2271
11
140.814
21
-91.1155
0
LINE
8
BLACK
6
CONTINUOUS
10
140.814
20
-91.1155
11
140.695
21
-90.9753
0
LINE
8
BLACK
6
CONTINUOUS
10
140.695
20
-90.9753
11
140.61
21
-90.8129
0
LINE
8
BLACK
6
CONTINUOUS
10
140.61
20
-90.8129
11
140.561
21
-90.6359
0
LINE
8
BLACK
6
CONTINUOUS
10
140.561
20
-90.6359
11
140.551
21
-90.4526
0
LINE
8
BLACK
6
CONTINUOUS
10
140.551
20
-90.4526
11
140.581
21
-90.2714
0
LINE
8
BLACK
6
CONTINUOUS
10
140.581
20
-90.2714
11
140.649
21
-90.1009
0
LINE
8
BLACK
6
CONTINUOUS
10
140.649
20
-90.1009
11
140.753
21
-89.9491
0
LINE
8
BLACK
6
CONTINUOUS
10
140.753
20
-89.9491
11
140.886
21
-89.823
0
LINE
8
BLACK
6
CONTINUOUS
10
140.886
20
-89.823
11
141.043
21
-89.7284
0
LINE
8
BLACK
6
CONTINUOUS
10
141.043
20
-89.7284
11
141.217
21
-89.6698
0
LINE
8
BLACK
6
CONTINUOUS
10
141.217
20
-89.6698
11
141.4
21
-89.65
0
LINE
8
BLACK
6
CONTINUOUS
10
141.4
20
-89.65
11
141.65
21
-89.65
0
LINE
8
BLACK
6
CONTINUOUS
10
141.65
20
-89.65
11
141.745
21
-89.6553
0
LINE
8
BLACK
6
CONTINUOUS
10
102.183
20
-89.7711
11
102.351
21
-89.831
0
LINE
8
BLACK
6
CONTINUOUS
10
102.351
20
-89.831
11
102.501
21
-89.9265
0
LINE
8
BLACK
6
CONTINUOUS
10
102.501
20
-89.9265
11
102.627
21
-90.0531
0
LINE
8
BLACK
6
CONTINUOUS
10
102.627
20
-90.0531
11
102.721
21
-90.2043
0
LINE
8
BLACK
6
CONTINUOUS
10
102.721
20
-90.2043
11
102.78
21
-90.3728
0
LINE
8
BLACK
6
CONTINUOUS
10
102.78
20
-90.3728
11
102.8
21
-90.55
0
LINE
8
BLACK
6
CONTINUOUS
10
102.8
20
-90.55
11
102.8
21
-90.5723
0
LINE
8
BLACK
6
CONTINUOUS
10
102.8
20
-90.5723
11
102.775
21
-90.749
0
LINE
8
BLACK
6
CONTINUOUS
10
102.775
20
-90.749
11
102.712
21
-90.9157
0
LINE
8
BLACK
6
CONTINUOUS
10
102.712
20
-90.9157
11
102.613
21
-91.0642
0
LINE
8
BLACK
6
CONTINUOUS
10
102.613
20
-91.0642
11
102.484
21
-91.1872
0
LINE
8
BLACK
6
CONTINUOUS
10
102.484
20
-91.1872
11
102.33
21
-91.2785
0
LINE
8
BLACK
6
CONTINUOUS
10
102.33
20
-91.2785
11
102.161
21
-91.3337
0
LINE
8
BLACK
6
CONTINUOUS
10
102.161
20
-91.3337
11
101.983
21
-91.3498
0
LINE
8
BLACK
6
CONTINUOUS
10
101.983
20
-91.3498
11
101.806
21
-91.3262
0
LINE
8
BLACK
6
CONTINUOUS
10
101.806
20
-91.3262
11
101.639
21
-91.2641
0
LINE
8
BLACK
6
CONTINUOUS
10
101.639
20
-91.2641
11
101.49
21
-91.1664
0
LINE
8
BLACK
6
CONTINUOUS
10
101.49
20
-91.1664
11
101.366
21
-91.0381
0
LINE
8
BLACK
6
CONTINUOUS
10
101.366
20
-91.0381
11
101.274
21
-90.8856
0
LINE
8
BLACK
6
CONTINUOUS
10
101.274
20
-90.8856
11
101.217
21
-90.7163
0
LINE
8
BLACK
6
CONTINUOUS
10
101.217
20
-90.7163
11
101.2
21
-90.5388
0
LINE
8
BLACK
6
CONTINUOUS
10
101.2
20
-90.5388
11
101.222
21
-90.3619
0
LINE
8
BLACK
6
CONTINUOUS
10
101.222
20
-90.3619
11
101.283
21
-90.1943
0
LINE
8
BLACK
6
CONTINUOUS
10
101.283
20
-90.1943
11
101.38
21
-90.0444
0
LINE
8
BLACK
6
CONTINUOUS
10
101.38
20
-90.0444
11
101.507
21
-89.9196
0
LINE
8
BLACK
6
CONTINUOUS
10
101.507
20
-89.9196
11
101.659
21
-89.8261
0
LINE
8
BLACK
6
CONTINUOUS
10
101.659
20
-89.8261
11
101.828
21
-89.7687
0
LINE
8
BLACK
6
CONTINUOUS
10
101.828
20
-89.7687
11
102.006
21
-89.75
0
LINE
8
BLACK
6
CONTINUOUS
10
102.006
20
-89.75
11
102.183
21
-89.7711
0
LINE
8
BLACK
6
CONTINUOUS
10
118.468
20
-89.2517
11
118.6
21
-89.3014
0
LINE
8
BLACK
6
CONTINUOUS
10
118.6
20
-89.3014
11
118.714
21
-89.3864
0
LINE
8
BLACK
6
CONTINUOUS
10
118.714
20
-89.3864
11
118.799
21
-89.4997
0
LINE
8
BLACK
6
CONTINUOUS
10
118.799
20
-89.4997
11
118.848
21
-89.6324
0
LINE
8
BLACK
6
CONTINUOUS
10
118.848
20
-89.6324
11
118.86
21
-89.7397
0
LINE
8
BLACK
6
CONTINUOUS
10
118.86
20
-89.7397
11
118.86
21
-90.6403
0
LINE
8
BLACK
6
CONTINUOUS
10
118.86
20
-90.6403
11
118.848
21
-90.7476
0
LINE
8
BLACK
6
CONTINUOUS
10
118.848
20
-90.7476
11
118.799
21
-90.8803
0
LINE
8
BLACK
6
CONTINUOUS
10
118.799
20
-90.8803
11
118.714
21
-90.9936
0
LINE
8
BLACK
6
CONTINUOUS
10
118.714
20
-90.9936
11
118.6
21
-91.0786
0
LINE
8
BLACK
6
CONTINUOUS
10
118.6
20
-91.0786
11
118.468
21
-91.1283
0
LINE
8
BLACK
6
CONTINUOUS
10
118.468
20
-91.1283
11
118.36
21
-91.14
0
LINE
8
BLACK
6
CONTINUOUS
10
118.36
20
-91.14
11
117.46
21
-91.14
0
LINE
8
BLACK
6
CONTINUOUS
10
117.46
20
-91.14
11
117.352
21
-91.1283
0
LINE
8
BLACK
6
CONTINUOUS
10
117.352
20
-91.1283
11
117.22
21
-91.0786
0
LINE
8
BLACK
6
CONTINUOUS
10
117.22
20
-91.0786
11
117.106
21
-90.9936
0
LINE
8
BLACK
6
CONTINUOUS
10
117.106
20
-90.9936
11
117.021
21
-90.8803
0
LINE
8
BLACK
6
CONTINUOUS
10
117.021
20
-90.8803
11
116.972
21
-90.7476
0
LINE
8
BLACK
6
CONTINUOUS
10
116.972
20
-90.7476
11
116.96
21
-90.6403
0
LINE
8
BLACK
6
CONTINUOUS
10
116.96
20
-90.6403
11
116.96
21
-89.7397
0
LINE
8
BLACK
6
CONTINUOUS
10
116.96
20
-89.7397
11
116.972
21
-89.6324
0
LINE
8
BLACK
6
CONTINUOUS
10
116.972
20
-89.6324
11
117.021
21
-89.4997
0
LINE
8
BLACK
6
CONTINUOUS
10
117.021
20
-89.4997
11
117.106
21
-89.3864
0
LINE
8
BLACK
6
CONTINUOUS
10
117.106
20
-89.3864
11
117.22
21
-89.3014
0
LINE
8
BLACK
6
CONTINUOUS
10
117.22
20
-89.3014
11
117.352
21
-89.2517
0
LINE
8
BLACK
6
CONTINUOUS
10
117.352
20
-89.2517
11
117.46
21
-89.24
0
LINE
8
BLACK
6
CONTINUOUS
10
117.46
20
-89.24
11
118.36
21
-89.24
0
LINE
8
BLACK
6
CONTINUOUS
10
118.36
20
-89.24
11
118.468
21
-89.2517
0
LINE
8
BLACK
6
CONTINUOUS
10
115.928
20
-89.2517
11
116.06
21
-89.3014
0
LINE
8
BLACK
6
CONTINUOUS
10
116.06
20
-89.3014
11
116.174
21
-89.3864
0
LINE
8
BLACK
6
CONTINUOUS
10
116.174
20
-89.3864
11
116.259
21
-89.4997
0
LINE
8
BLACK
6
CONTINUOUS
10
116.259
20
-89.4997
11
116.308
21
-89.6324
0
LINE
8
BLACK
6
CONTINUOUS
10
116.308
20
-89.6324
11
116.32
21
-89.7397
0
LINE
8
BLACK
6
CONTINUOUS
10
116.32
20
-89.7397
11
116.32
21
-90.6403
0
LINE
8
BLACK
6
CONTINUOUS
10
116.32
20
-90.6403
11
116.308
21
-90.7476
0
LINE
8
BLACK
6
CONTINUOUS
10
116.308
20
-90.7476
11
116.259
21
-90.8803
0
LINE
8
BLACK
6
CONTINUOUS
10
116.259
20
-90.8803
11
116.174
21
-90.9936
0
LINE
8
BLACK
6
CONTINUOUS
10
116.174
20
-90.9936
11
116.06
21
-91.0786
0
LINE
8
BLACK
6
CONTINUOUS
10
116.06
20
-91.0786
11
115.928
21
-91.1283
0
LINE
8
BLACK
6
CONTINUOUS
10
115.928
20
-91.1283
11
115.82
21
-91.14
0
LINE
8
BLACK
6
CONTINUOUS
10
115.82
20
-91.14
11
114.92
21
-91.14
0
LINE
8
BLACK
6
CONTINUOUS
10
114.92
20
-91.14
11
114.812
21
-91.1283
0
LINE
8
BLACK
6
CONTINUOUS
10
114.812
20
-91.1283
11
114.68
21
-91.0786
0
LINE
8
BLACK
6
CONTINUOUS
10
114.68
20
-91.0786
11
114.566
21
-90.9936
0
LINE
8
BLACK
6
CONTINUOUS
10
114.566
20
-90.9936
11
114.481
21
-90.8803
0
LINE
8
BLACK
6
CONTINUOUS
10
114.481
20
-90.8803
11
114.432
21
-90.7476
0
LINE
8
BLACK
6
CONTINUOUS
10
114.432
20
-90.7476
11
114.42
21
-90.6403
0
LINE
8
BLACK
6
CONTINUOUS
10
114.42
20
-90.6403
11
114.42
21
-89.7397
0
LINE
8
BLACK
6
CONTINUOUS
10
114.42
20
-89.7397
11
114.432
21
-89.6324
0
LINE
8
BLACK
6
CONTINUOUS
10
114.432
20
-89.6324
11
114.481
21
-89.4997
0
LINE
8
BLACK
6
CONTINUOUS
10
114.481
20
-89.4997
11
114.566
21
-89.3864
0
LINE
8
BLACK
6
CONTINUOUS
10
114.566
20
-89.3864
11
114.68
21
-89.3014
0
LINE
8
BLACK
6
CONTINUOUS
10
114.68
20
-89.3014
11
114.812
21
-89.2517
0
LINE
8
BLACK
6
CONTINUOUS
10
114.812
20
-89.2517
11
114.92
21
-89.24
0
LINE
8
BLACK
6
CONTINUOUS
10
114.92
20
-89.24
11
115.82
21
-89.24
0
LINE
8
BLACK
6
CONTINUOUS
10
115.82
20
-89.24
11
115.928
21
-89.2517
0
LINE
8
BLACK
6
CONTINUOUS
10
108.308
20
-89.2517
11
108.44
21
-89.3014
0
LINE
8
BLACK
6
CONTINUOUS
10
108.44
20
-89.3014
11
108.554
21
-89.3864
0
LINE
8
BLACK
6
CONTINUOUS
10
108.554
20
-89.3864
11
108.639
21
-89.4997
0
LINE
8
BLACK
6
CONTINUOUS
10
108.639
20
-89.4997
11
108.688
21
-89.6324
0
LINE
8
BLACK
6
CONTINUOUS
10
108.688
20
-89.6324
11
108.7
21
-89.7397
0
LINE
8
BLACK
6
CONTINUOUS
10
108.7
20
-89.7397
11
108.7
21
-90.6403
0
LINE
8
BLACK
6
CONTINUOUS
10
108.7
20
-90.6403
11
108.688
21
-90.7476
0
LINE
8
BLACK
6
CONTINUOUS
10
108.688
20
-90.7476
11
108.639
21
-90.8803
0
LINE
8
BLACK
6
CONTINUOUS
10
108.639
20
-90.8803
11
108.554
21
-90.9936
0
LINE
8
BLACK
6
CONTINUOUS
10
108.554
20
-90.9936
11
108.44
21
-91.0786
0
LINE
8
BLACK
6
CONTINUOUS
10
108.44
20
-91.0786
11
108.308
21
-91.1283
0
LINE
8
BLACK
6
CONTINUOUS
10
108.308
20
-91.1283
11
108.2
21
-91.14
0
LINE
8
BLACK
6
CONTINUOUS
10
108.2
20
-91.14
11
107.3
21
-91.14
0
LINE
8
BLACK
6
CONTINUOUS
10
107.3
20
-91.14
11
107.192
21
-91.1283
0
LINE
8
BLACK
6
CONTINUOUS
10
107.192
20
-91.1283
11
107.06
21
-91.0786
0
LINE
8
BLACK
6
CONTINUOUS
10
107.06
20
-91.0786
11
106.946
21
-90.9936
0
LINE
8
BLACK
6
CONTINUOUS
10
106.946
20
-90.9936
11
106.861
21
-90.8803
0
LINE
8
BLACK
6
CONTINUOUS
10
106.861
20
-90.8803
11
106.812
21
-90.7476
0
LINE
8
BLACK
6
CONTINUOUS
10
106.812
20
-90.7476
11
106.8
21
-90.6403
0
LINE
8
BLACK
6
CONTINUOUS
10
106.8
20
-90.6403
11
106.8
21
-89.7397
0
LINE
8
BLACK
6
CONTINUOUS
10
106.8
20
-89.7397
11
106.812
21
-89.6324
0
LINE
8
BLACK
6
CONTINUOUS
10
106.812
20
-89.6324
11
106.861
21
-89.4997
0
LINE
8
BLACK
6
CONTINUOUS
10
106.861
20
-89.4997
11
106.946
21
-89.3864
0
LINE
8
BLACK
6
CONTINUOUS
10
106.946
20
-89.3864
11
107.06
21
-89.3014
0
LINE
8
BLACK
6
CONTINUOUS
10
107.06
20
-89.3014
11
107.192
21
-89.2517
0
LINE
8
BLACK
6
CONTINUOUS
10
107.192
20
-89.2517
11
107.3
21
-89.24
0
LINE
8
BLACK
6
CONTINUOUS
10
107.3
20
-89.24
11
108.2
21
-89.24
0
LINE
8
BLACK
6
CONTINUOUS
10
108.2
20
-89.24
11
108.308
21
-89.2517
0
LINE
8
BLACK
6
CONTINUOUS
10
121.008
20
-89.2517
11
121.14
21
-89.3014
0
LINE
8
BLACK
6
CONTINUOUS
10
121.14
20
-89.3014
11
121.254
21
-89.3864
0
LINE
8
BLACK
6
CONTINUOUS
10
121.254
20
-89.3864
11
121.339
21
-89.4997
0
LINE
8
BLACK
6
CONTINUOUS
10
121.339
20
-89.4997
11
121.388
21
-89.6324
0
LINE
8
BLACK
6
CONTINUOUS
10
121.388
20
-89.6324
11
121.4
21
-89.7397
0
LINE
8
BLACK
6
CONTINUOUS
10
121.4
20
-89.7397
11
121.4
21
-90.6403
0
LINE
8
BLACK
6
CONTINUOUS
10
121.4
20
-90.6403
11
121.388
21
-90.7476
0
LINE
8
BLACK
6
CONTINUOUS
10
121.388
20
-90.7476
11
121.339
21
-90.8803
0
LINE
8
BLACK
6
CONTINUOUS
10
121.339
20
-90.8803
11
121.254
21
-90.9936
0
LINE
8
BLACK
6
CONTINUOUS
10
121.254
20
-90.9936
11
121.14
21
-91.0786
0
LINE
8
BLACK
6
CONTINUOUS
10
121.14
20
-91.0786
11
121.008
21
-91.1283
0
LINE
8
BLACK
6
CONTINUOUS
10
121.008
20
-91.1283
11
120.9
21
-91.14
0
LINE
8
BLACK
6
CONTINUOUS
10
120.9
20
-91.14
11
120
21
-91.14
0
LINE
8
BLACK
6
CONTINUOUS
10
120
20
-91.14
11
119.892
21
-91.1283
0
LINE
8
BLACK
6
CONTINUOUS
10
119.892
20
-91.1283
11
119.76
21
-91.0786
0
LINE
8
BLACK
6
CONTINUOUS
10
119.76
20
-91.0786
11
119.646
21
-90.9936
0
LINE
8
BLACK
6
CONTINUOUS
10
119.646
20
-90.9936
11
119.561
21
-90.8803
0
LINE
8
BLACK
6
CONTINUOUS
10
119.561
20
-90.8803
11
119.512
21
-90.7476
0
LINE
8
BLACK
6
CONTINUOUS
10
119.512
20
-90.7476
11
119.5
21
-90.6403
0
LINE
8
BLACK
6
CONTINUOUS
10
119.5
20
-90.6403
11
119.5
21
-89.7397
0
LINE
8
BLACK
6
CONTINUOUS
10
119.5
20
-89.7397
11
119.512
21
-89.6324
0
LINE
8
BLACK
6
CONTINUOUS
10
119.512
20
-89.6324
11
119.561
21
-89.4997
0
LINE
8
BLACK
6
CONTINUOUS
10
119.561
20
-89.4997
11
119.646
21
-89.3864
0
LINE
8
BLACK
6
CONTINUOUS
10
119.646
20
-89.3864
11
119.76
21
-89.3014
0
LINE
8
BLACK
6
CONTINUOUS
10
119.76
20
-89.3014
11
119.892
21
-89.2517
0
LINE
8
BLACK
6
CONTINUOUS
10
119.892
20
-89.2517
11
120
21
-89.24
0
LINE
8
BLACK
6
CONTINUOUS
10
120
20
-89.24
11
120.9
21
-89.24
0
LINE
8
BLACK
6
CONTINUOUS
10
120.9
20
-89.24
11
121.008
21
-89.2517
0
LINE
8
BLACK
6
CONTINUOUS
10
124.108
20
-89.2517
11
124.24
21
-89.3014
0
LINE
8
BLACK
6
CONTINUOUS
10
124.24
20
-89.3014
11
124.354
21
-89.3864
0
LINE
8
BLACK
6
CONTINUOUS
10
124.354
20
-89.3864
11
124.439
21
-89.4997
0
LINE
8
BLACK
6
CONTINUOUS
10
124.439
20
-89.4997
11
124.488
21
-89.6324
0
LINE
8
BLACK
6
CONTINUOUS
10
124.488
20
-89.6324
11
124.5
21
-89.7397
0
LINE
8
BLACK
6
CONTINUOUS
10
124.5
20
-89.7397
11
124.5
21
-90.6403
0
LINE
8
BLACK
6
CONTINUOUS
10
124.5
20
-90.6403
11
124.488
21
-90.7476
0
LINE
8
BLACK
6
CONTINUOUS
10
124.488
20
-90.7476
11
124.439
21
-90.8803
0
LINE
8
BLACK
6
CONTINUOUS
10
124.439
20
-90.8803
11
124.354
21
-90.9936
0
LINE
8
BLACK
6
CONTINUOUS
10
124.354
20
-90.9936
11
124.24
21
-91.0786
0
LINE
8
BLACK
6
CONTINUOUS
10
124.24
20
-91.0786
11
124.108
21
-91.1283
0
LINE
8
BLACK
6
CONTINUOUS
10
124.108
20
-91.1283
11
124
21
-91.14
0
LINE
8
BLACK
6
CONTINUOUS
10
124
20
-91.14
11
123.1
21
-91.14
0
LINE
8
BLACK
6
CONTINUOUS
10
123.1
20
-91.14
11
122.992
21
-91.1283
0
LINE
8
BLACK
6
CONTINUOUS
10
122.992
20
-91.1283
11
122.86
21
-91.0786
0
LINE
8
BLACK
6
CONTINUOUS
10
122.86
20
-91.0786
11
122.746
21
-90.9936
0
LINE
8
BLACK
6
CONTINUOUS
10
122.746
20
-90.9936
11
122.661
21
-90.8803
0
LINE
8
BLACK
6
CONTINUOUS
10
122.661
20
-90.8803
11
122.612
21
-90.7476
0
LINE
8
BLACK
6
CONTINUOUS
10
122.612
20
-90.7476
11
122.6
21
-90.6403
0
LINE
8
BLACK
6
CONTINUOUS
10
122.6
20
-90.6403
11
122.6
21
-89.7397
0
LINE
8
BLACK
6
CONTINUOUS
10
122.6
20
-89.7397
11
122.612
21
-89.6324
0
LINE
8
BLACK
6
CONTINUOUS
10
122.612
20
-89.6324
11
122.661
21
-89.4997
0
LINE
8
BLACK
6
CONTINUOUS
10
122.661
20
-89.4997
11
122.746
21
-89.3864
0
LINE
8
BLACK
6
CONTINUOUS
10
122.746
20
-89.3864
11
122.86
21
-89.3014
0
LINE
8
BLACK
6
CONTINUOUS
10
122.86
20
-89.3014
11
122.992
21
-89.2517
0
LINE
8
BLACK
6
CONTINUOUS
10
122.992
20
-89.2517
11
123.1
21
-89.24
0
LINE
8
BLACK
6
CONTINUOUS
10
123.1
20
-89.24
11
124
21
-89.24
0
LINE
8
BLACK
6
CONTINUOUS
10
124
20
-89.24
11
124.108
21
-89.2517
0
LINE
8
BLACK
6
CONTINUOUS
10
136.808
20
-89.2517
11
136.94
21
-89.3014
0
LINE
8
BLACK
6
CONTINUOUS
10
136.94
20
-89.3014
11
137.054
21
-89.3864
0
LINE
8
BLACK
6
CONTINUOUS
10
137.054
20
-89.3864
11
137.139
21
-89.4997
0
LINE
8
BLACK
6
CONTINUOUS
10
137.139
20
-89.4997
11
137.188
21
-89.6324
0
LINE
8
BLACK
6
CONTINUOUS
10
137.188
20
-89.6324
11
137.2
21
-89.7397
0
LINE
8
BLACK
6
CONTINUOUS
10
137.2
20
-89.7397
11
137.2
21
-90.6403
0
LINE
8
BLACK
6
CONTINUOUS
10
137.2
20
-90.6403
11
137.188
21
-90.7476
0
LINE
8
BLACK
6
CONTINUOUS
10
137.188
20
-90.7476
11
137.139
21
-90.8803
0
LINE
8
BLACK
6
CONTINUOUS
10
137.139
20
-90.8803
11
137.054
21
-90.9936
0
LINE
8
BLACK
6
CONTINUOUS
10
137.054
20
-90.9936
11
136.94
21
-91.0786
0
LINE
8
BLACK
6
CONTINUOUS
10
136.94
20
-91.0786
11
136.808
21
-91.1283
0
LINE
8
BLACK
6
CONTINUOUS
10
136.808
20
-91.1283
11
136.7
21
-91.14
0
LINE
8
BLACK
6
CONTINUOUS
10
136.7
20
-91.14
11
135.8
21
-91.14
0
LINE
8
BLACK
6
CONTINUOUS
10
135.8
20
-91.14
11
135.692
21
-91.1283
0
LINE
8
BLACK
6
CONTINUOUS
10
135.692
20
-91.1283
11
135.56
21
-91.0786
0
LINE
8
BLACK
6
CONTINUOUS
10
135.56
20
-91.0786
11
135.446
21
-90.9936
0
LINE
8
BLACK
6
CONTINUOUS
10
135.446
20
-90.9936
11
135.361
21
-90.8803
0
LINE
8
BLACK
6
CONTINUOUS
10
135.361
20
-90.8803
11
135.312
21
-90.7476
0
LINE
8
BLACK
6
CONTINUOUS
10
135.312
20
-90.7476
11
135.3
21
-90.6403
0
LINE
8
BLACK
6
CONTINUOUS
10
135.3
20
-90.6403
11
135.3
21
-89.7397
0
LINE
8
BLACK
6
CONTINUOUS
10
135.3
20
-89.7397
11
135.312
21
-89.6324
0
LINE
8
BLACK
6
CONTINUOUS
10
135.312
20
-89.6324
11
135.361
21
-89.4997
0
LINE
8
BLACK
6
CONTINUOUS
10
135.361
20
-89.4997
11
135.446
21
-89.3864
0
LINE
8
BLACK
6
CONTINUOUS
10
135.446
20
-89.3864
11
135.56
21
-89.3014
0
LINE
8
BLACK
6
CONTINUOUS
10
135.56
20
-89.3014
11
135.692
21
-89.2517
0
LINE
8
BLACK
6
CONTINUOUS
10
135.692
20
-89.2517
11
135.8
21
-89.24
0
LINE
8
BLACK
6
CONTINUOUS
10
135.8
20
-89.24
11
136.7
21
-89.24
0
LINE
8
BLACK
6
CONTINUOUS
10
136.7
20
-89.24
11
136.808
21
-89.2517
0
LINE
8
BLACK
6
CONTINUOUS
10
117.145
20
-87.2285
11
117.29
21
-87.2884
0
LINE
8
BLACK
6
CONTINUOUS
10
117.29
20
-87.2884
11
117.414
21
-87.3839
0
LINE
8
BLACK
6
CONTINUOUS
10
117.414
20
-87.3839
11
117.51
21
-87.5082
0
LINE
8
BLACK
6
CONTINUOUS
10
117.51
20
-87.5082
11
117.57
21
-87.653
0
LINE
8
BLACK
6
CONTINUOUS
10
117.57
20
-87.653
11
117.59
21
-87.8084
0
LINE
8
BLACK
6
CONTINUOUS
10
117.59
20
-87.8084
11
117.59
21
-88.5076
0
LINE
8
BLACK
6
CONTINUOUS
10
117.59
20
-88.5076
11
117.57
21
-88.663
0
LINE
8
BLACK
6
CONTINUOUS
10
117.57
20
-88.663
11
117.51
21
-88.8078
0
LINE
8
BLACK
6
CONTINUOUS
10
117.51
20
-88.8078
11
117.414
21
-88.9321
0
LINE
8
BLACK
6
CONTINUOUS
10
117.414
20
-88.9321
11
117.29
21
-89.0276
0
LINE
8
BLACK
6
CONTINUOUS
10
117.29
20
-89.0276
11
117.145
21
-89.0875
0
LINE
8
BLACK
6
CONTINUOUS
10
117.145
20
-89.0875
11
116.99
21
-89.108
0
LINE
8
BLACK
6
CONTINUOUS
10
116.99
20
-89.108
11
116.29
21
-89.108
0
LINE
8
BLACK
6
CONTINUOUS
10
116.29
20
-89.108
11
116.135
21
-89.0875
0
LINE
8
BLACK
6
CONTINUOUS
10
116.135
20
-89.0875
11
115.99
21
-89.0276
0
LINE
8
BLACK
6
CONTINUOUS
10
115.99
20
-89.0276
11
115.866
21
-88.9321
0
LINE
8
BLACK
6
CONTINUOUS
10
115.866
20
-88.9321
11
115.77
21
-88.8078
0
LINE
8
BLACK
6
CONTINUOUS
10
115.77
20
-88.8078
11
115.71
21
-88.663
0
LINE
8
BLACK
6
CONTINUOUS
10
115.71
20
-88.663
11
115.69
21
-88.5076
0
LINE
8
BLACK
6
CONTINUOUS
10
115.69
20
-88.5076
11
115.69
21
-87.8084
0
LINE
8
BLACK
6
CONTINUOUS
10
115.69
20
-87.8084
11
115.71
21
-87.653
0
LINE
8
BLACK
6
CONTINUOUS
10
115.71
20
-87.653
11
115.77
21
-87.5082
0
LINE
8
BLACK
6
CONTINUOUS
10
115.77
20
-87.5082
11
115.866
21
-87.3839
0
LINE
8
BLACK
6
CONTINUOUS
10
115.866
20
-87.3839
11
115.99
21
-87.2884
0
LINE
8
BLACK
6
CONTINUOUS
10
115.99
20
-87.2884
11
116.135
21
-87.2285
0
LINE
8
BLACK
6
CONTINUOUS
10
116.135
20
-87.2285
11
116.29
21
-87.208
0
LINE
8
BLACK
6
CONTINUOUS
10
116.29
20
-87.208
11
116.99
21
-87.208
0
LINE
8
BLACK
6
CONTINUOUS
10
116.99
20
-87.208
11
117.145
21
-87.2285
0
LINE
8
BLACK
6
CONTINUOUS
10
141.745
20
-87.1553
11
141.924
21
-87.1953
0
LINE
8
BLACK
6
CONTINUOUS
10
141.924
20
-87.1953
11
142.09
21
-87.2729
0
LINE
8
BLACK
6
CONTINUOUS
10
142.09
20
-87.2729
11
142.236
21
-87.3845
0
LINE
8
BLACK
6
CONTINUOUS
10
142.236
20
-87.3845
11
142.355
21
-87.5247
0
LINE
8
BLACK
6
CONTINUOUS
10
142.355
20
-87.5247
11
142.44
21
-87.6871
0
LINE
8
BLACK
6
CONTINUOUS
10
142.44
20
-87.6871
11
142.489
21
-87.8641
0
LINE
8
BLACK
6
CONTINUOUS
10
142.489
20
-87.8641
11
142.499
21
-88.0474
0
LINE
8
BLACK
6
CONTINUOUS
10
142.499
20
-88.0474
11
142.469
21
-88.2286
0
LINE
8
BLACK
6
CONTINUOUS
10
142.469
20
-88.2286
11
142.401
21
-88.3991
0
LINE
8
BLACK
6
CONTINUOUS
10
142.401
20
-88.3991
11
142.297
21
-88.5509
0
LINE
8
BLACK
6
CONTINUOUS
10
142.297
20
-88.5509
11
142.164
21
-88.6771
0
LINE
8
BLACK
6
CONTINUOUS
10
142.164
20
-88.6771
11
142.007
21
-88.7716
0
LINE
8
BLACK
6
CONTINUOUS
10
142.007
20
-88.7716
11
141.833
21
-88.8302
0
LINE
8
BLACK
6
CONTINUOUS
10
141.833
20
-88.8302
11
141.65
21
-88.85
0
LINE
8
BLACK
6
CONTINUOUS
10
141.65
20
-88.85
11
141.4
21
-88.85
0
LINE
8
BLACK
6
CONTINUOUS
10
141.4
20
-88.85
11
141.305
21
-88.8447
0
LINE
8
BLACK
6
CONTINUOUS
10
141.305
20
-88.8447
11
141.126
21
-88.8047
0
LINE
8
BLACK
6
CONTINUOUS
10
141.126
20
-88.8047
11
140.96
21
-88.7271
0
LINE
8
BLACK
6
CONTINUOUS
10
140.96
20
-88.7271
11
140.814
21
-88.6155
0
LINE
8
BLACK
6
CONTINUOUS
10
140.814
20
-88.6155
11
140.695
21
-88.4753
0
LINE
8
BLACK
6
CONTINUOUS
10
140.695
20
-88.4753
11
140.61
21
-88.3129
0
LINE
8
BLACK
6
CONTINUOUS
10
140.61
20
-88.3129
11
140.561
21
-88.1359
0
LINE
8
BLACK
6
CONTINUOUS
10
140.561
20
-88.1359
11
140.551
21
-87.9526
0
LINE
8
BLACK
6
CONTINUOUS
10
140.551
20
-87.9526
11
140.581
21
-87.7714
0
LINE
8
BLACK
6
CONTINUOUS
10
140.581
20
-87.7714
11
140.649
21
-87.6009
0
LINE
8
BLACK
6
CONTINUOUS
10
140.649
20
-87.6009
11
140.753
21
-87.4491
0
LINE
8
BLACK
6
CONTINUOUS
10
140.753
20
-87.4491
11
140.886
21
-87.323
0
LINE
8
BLACK
6
CONTINUOUS
10
140.886
20
-87.323
11
141.043
21
-87.2284
0
LINE
8
BLACK
6
CONTINUOUS
10
141.043
20
-87.2284
11
141.217
21
-87.1698
0
LINE
8
BLACK
6
CONTINUOUS
10
141.217
20
-87.1698
11
141.4
21
-87.15
0
LINE
8
BLACK
6
CONTINUOUS
10
141.4
20
-87.15
11
141.65
21
-87.15
0
LINE
8
BLACK
6
CONTINUOUS
10
141.65
20
-87.15
11
141.745
21
-87.1553
0
LINE
8
BLACK
6
CONTINUOUS
10
121.008
20
-86.7117
11
121.14
21
-86.7614
0
LINE
8
BLACK
6
CONTINUOUS
10
121.14
20
-86.7614
11
121.254
21
-86.8464
0
LINE
8
BLACK
6
CONTINUOUS
10
121.254
20
-86.8464
11
121.339
21
-86.9597
0
LINE
8
BLACK
6
CONTINUOUS
10
121.339
20
-86.9597
11
121.388
21
-87.0924
0
LINE
8
BLACK
6
CONTINUOUS
10
121.388
20
-87.0924
11
121.4
21
-87.1997
0
LINE
8
BLACK
6
CONTINUOUS
10
121.4
20
-87.1997
11
121.4
21
-88.1003
0
LINE
8
BLACK
6
CONTINUOUS
10
121.4
20
-88.1003
11
121.388
21
-88.2076
0
LINE
8
BLACK
6
CONTINUOUS
10
121.388
20
-88.2076
11
121.339
21
-88.3403
0
LINE
8
BLACK
6
CONTINUOUS
10
121.339
20
-88.3403
11
121.254
21
-88.4536
0
LINE
8
BLACK
6
CONTINUOUS
10
121.254
20
-88.4536
11
121.14
21
-88.5386
0
LINE
8
BLACK
6
CONTINUOUS
10
121.14
20
-88.5386
11
121.008
21
-88.5883
0
LINE
8
BLACK
6
CONTINUOUS
10
121.008
20
-88.5883
11
120.9
21
-88.6
0
LINE
8
BLACK
6
CONTINUOUS
10
120.9
20
-88.6
11
120
21
-88.6
0
LINE
8
BLACK
6
CONTINUOUS
10
120
20
-88.6
11
119.892
21
-88.5883
0
LINE
8
BLACK
6
CONTINUOUS
10
119.892
20
-88.5883
11
119.76
21
-88.5386
0
LINE
8
BLACK
6
CONTINUOUS
10
119.76
20
-88.5386
11
119.646
21
-88.4536
0
LINE
8
BLACK
6
CONTINUOUS
10
119.646
20
-88.4536
11
119.561
21
-88.3403
0
LINE
8
BLACK
6
CONTINUOUS
10
119.561
20
-88.3403
11
119.512
21
-88.2076
0
LINE
8
BLACK
6
CONTINUOUS
10
119.512
20
-88.2076
11
119.5
21
-88.1003
0
LINE
8
BLACK
6
CONTINUOUS
10
119.5
20
-88.1003
11
119.5
21
-87.1997
0
LINE
8
BLACK
6
CONTINUOUS
10
119.5
20
-87.1997
11
119.512
21
-87.0924
0
LINE
8
BLACK
6
CONTINUOUS
10
119.512
20
-87.0924
11
119.561
21
-86.9597
0
LINE
8
BLACK
6
CONTINUOUS
10
119.561
20
-86.9597
11
119.646
21
-86.8464
0
LINE
8
BLACK
6
CONTINUOUS
10
119.646
20
-86.8464
11
119.76
21
-86.7614
0
LINE
8
BLACK
6
CONTINUOUS
10
119.76
20
-86.7614
11
119.892
21
-86.7117
0
LINE
8
BLACK
6
CONTINUOUS
10
119.892
20
-86.7117
11
120
21
-86.7
0
LINE
8
BLACK
6
CONTINUOUS
10
120
20
-86.7
11
120.9
21
-86.7
0
LINE
8
BLACK
6
CONTINUOUS
10
120.9
20
-86.7
11
121.008
21
-86.7117
0
LINE
8
BLACK
6
CONTINUOUS
10
108.308
20
-86.7117
11
108.44
21
-86.7614
0
LINE
8
BLACK
6
CONTINUOUS
10
108.44
20
-86.7614
11
108.554
21
-86.8464
0
LINE
8
BLACK
6
CONTINUOUS
10
108.554
20
-86.8464
11
108.639
21
-86.9597
0
LINE
8
BLACK
6
CONTINUOUS
10
108.639
20
-86.9597
11
108.688
21
-87.0924
0
LINE
8
BLACK
6
CONTINUOUS
10
108.688
20
-87.0924
11
108.7
21
-87.1997
0
LINE
8
BLACK
6
CONTINUOUS
10
108.7
20
-87.1997
11
108.7
21
-88.1003
0
LINE
8
BLACK
6
CONTINUOUS
10
108.7
20
-88.1003
11
108.688
21
-88.2076
0
LINE
8
BLACK
6
CONTINUOUS
10
108.688
20
-88.2076
11
108.639
21
-88.3403
0
LINE
8
BLACK
6
CONTINUOUS
10
108.639
20
-88.3403
11
108.554
21
-88.4536
0
LINE
8
BLACK
6
CONTINUOUS
10
108.554
20
-88.4536
11
108.44
21
-88.5386
0
LINE
8
BLACK
6
CONTINUOUS
10
108.44
20
-88.5386
11
108.308
21
-88.5883
0
LINE
8
BLACK
6
CONTINUOUS
10
108.308
20
-88.5883
11
108.2
21
-88.6
0
LINE
8
BLACK
6
CONTINUOUS
10
108.2
20
-88.6
11
107.3
21
-88.6
0
LINE
8
BLACK
6
CONTINUOUS
10
107.3
20
-88.6
11
107.192
21
-88.5883
0
LINE
8
BLACK
6
CONTINUOUS
10
107.192
20
-88.5883
11
107.06
21
-88.5386
0
LINE
8
BLACK
6
CONTINUOUS
10
107.06
20
-88.5386
11
106.946
21
-88.4536
0
LINE
8
BLACK
6
CONTINUOUS
10
106.946
20
-88.4536
11
106.861
21
-88.3403
0
LINE
8
BLACK
6
CONTINUOUS
10
106.861
20
-88.3403
11
106.812
21
-88.2076
0
LINE
8
BLACK
6
CONTINUOUS
10
106.812
20
-88.2076
11
106.8
21
-88.1003
0
LINE
8
BLACK
6
CONTINUOUS
10
106.8
20
-88.1003
11
106.8
21
-87.1997
0
LINE
8
BLACK
6
CONTINUOUS
10
106.8
20
-87.1997
11
106.812
21
-87.0924
0
LINE
8
BLACK
6
CONTINUOUS
10
106.812
20
-87.0924
11
106.861
21
-86.9597
0
LINE
8
BLACK
6
CONTINUOUS
10
106.861
20
-86.9597
11
106.946
21
-86.8464
0
LINE
8
BLACK
6
CONTINUOUS
10
106.946
20
-86.8464
11
107.06
21
-86.7614
0
LINE
8
BLACK
6
CONTINUOUS
10
107.06
20
-86.7614
11
107.192
21
-86.7117
0
LINE
8
BLACK
6
CONTINUOUS
10
107.192
20
-86.7117
11
107.3
21
-86.7
0
LINE
8
BLACK
6
CONTINUOUS
10
107.3
20
-86.7
11
108.2
21
-86.7
0
LINE
8
BLACK
6
CONTINUOUS
10
108.2
20
-86.7
11
108.308
21
-86.7117
0
LINE
8
BLACK
6
CONTINUOUS
10
124.108
20
-86.7117
11
124.24
21
-86.7614
0
LINE
8
BLACK
6
CONTINUOUS
10
124.24
20
-86.7614
11
124.354
21
-86.8464
0
LINE
8
BLACK
6
CONTINUOUS
10
124.354
20
-86.8464
11
124.439
21
-86.9597
0
LINE
8
BLACK
6
CONTINUOUS
10
124.439
20
-86.9597
11
124.488
21
-87.0924
0
LINE
8
BLACK
6
CONTINUOUS
10
124.488
20
-87.0924
11
124.5
21
-87.1997
0
LINE
8
BLACK
6
CONTINUOUS
10
124.5
20
-87.1997
11
124.5
21
-88.1003
0
LINE
8
BLACK
6
CONTINUOUS
10
124.5
20
-88.1003
11
124.488
21
-88.2076
0
LINE
8
BLACK
6
CONTINUOUS
10
124.488
20
-88.2076
11
124.439
21
-88.3403
0
LINE
8
BLACK
6
CONTINUOUS
10
124.439
20
-88.3403
11
124.354
21
-88.4536
0
LINE
8
BLACK
6
CONTINUOUS
10
124.354
20
-88.4536
11
124.24
21
-88.5386
0
LINE
8
BLACK
6
CONTINUOUS
10
124.24
20
-88.5386
11
124.108
21
-88.5883
0
LINE
8
BLACK
6
CONTINUOUS
10
124.108
20
-88.5883
11
124
21
-88.6
0
LINE
8
BLACK
6
CONTINUOUS
10
124
20
-88.6
11
123.1
21
-88.6
0
LINE
8
BLACK
6
CONTINUOUS
10
123.1
20
-88.6
11
122.992
21
-88.5883
0
LINE
8
BLACK
6
CONTINUOUS
10
122.992
20
-88.5883
11
122.86
21
-88.5386
0
LINE
8
BLACK
6
CONTINUOUS
10
122.86
20
-88.5386
11
122.746
21
-88.4536
0
LINE
8
BLACK
6
CONTINUOUS
10
122.746
20
-88.4536
11
122.661
21
-88.3403
0
LINE
8
BLACK
6
CONTINUOUS
10
122.661
20
-88.3403
11
122.612
21
-88.2076
0
LINE
8
BLACK
6
CONTINUOUS
10
122.612
20
-88.2076
11
122.6
21
-88.1003
0
LINE
8
BLACK
6
CONTINUOUS
10
122.6
20
-88.1003
11
122.6
21
-87.1997
0
LINE
8
BLACK
6
CONTINUOUS
10
122.6
20
-87.1997
11
122.612
21
-87.0924
0
LINE
8
BLACK
6
CONTINUOUS
10
122.612
20
-87.0924
11
122.661
21
-86.9597
0
LINE
8
BLACK
6
CONTINUOUS
10
122.661
20
-86.9597
11
122.746
21
-86.8464
0
LINE
8
BLACK
6
CONTINUOUS
10
122.746
20
-86.8464
11
122.86
21
-86.7614
0
LINE
8
BLACK
6
CONTINUOUS
10
122.86
20
-86.7614
11
122.992
21
-86.7117
0
LINE
8
BLACK
6
CONTINUOUS
10
122.992
20
-86.7117
11
123.1
21
-86.7
0
LINE
8
BLACK
6
CONTINUOUS
10
123.1
20
-86.7
11
124
21
-86.7
0
LINE
8
BLACK
6
CONTINUOUS
10
124
20
-86.7
11
124.108
21
-86.7117
0
LINE
8
BLACK
6
CONTINUOUS
10
136.808
20
-86.7117
11
136.94
21
-86.7614
0
LINE
8
BLACK
6
CONTINUOUS
10
136.94
20
-86.7614
11
137.054
21
-86.8464
0
LINE
8
BLACK
6
CONTINUOUS
10
137.054
20
-86.8464
11
137.139
21
-86.9597
0
LINE
8
BLACK
6
CONTINUOUS
10
137.139
20
-86.9597
11
137.188
21
-87.0924
0
LINE
8
BLACK
6
CONTINUOUS
10
137.188
20
-87.0924
11
137.2
21
-87.1997
0
LINE
8
BLACK
6
CONTINUOUS
10
137.2
20
-87.1997
11
137.2
21
-88.1003
0
LINE
8
BLACK
6
CONTINUOUS
10
137.2
20
-88.1003
11
137.188
21
-88.2076
0
LINE
8
BLACK
6
CONTINUOUS
10
137.188
20
-88.2076
11
137.139
21
-88.3403
0
LINE
8
BLACK
6
CONTINUOUS
10
137.139
20
-88.3403
11
137.054
21
-88.4536
0
LINE
8
BLACK
6
CONTINUOUS
10
137.054
20
-88.4536
11
136.94
21
-88.5386
0
LINE
8
BLACK
6
CONTINUOUS
10
136.94
20
-88.5386
11
136.808
21
-88.5883
0
LINE
8
BLACK
6
CONTINUOUS
10
136.808
20
-88.5883
11
136.7
21
-88.6
0
LINE
8
BLACK
6
CONTINUOUS
10
136.7
20
-88.6
11
135.8
21
-88.6
0
LINE
8
BLACK
6
CONTINUOUS
10
135.8
20
-88.6
11
135.692
21
-88.5883
0
LINE
8
BLACK
6
CONTINUOUS
10
135.692
20
-88.5883
11
135.56
21
-88.5386
0
LINE
8
BLACK
6
CONTINUOUS
10
135.56
20
-88.5386
11
135.446
21
-88.4536
0
LINE
8
BLACK
6
CONTINUOUS
10
135.446
20
-88.4536
11
135.361
21
-88.3403
0
LINE
8
BLACK
6
CONTINUOUS
10
135.361
20
-88.3403
11
135.312
21
-88.2076
0
LINE
8
BLACK
6
CONTINUOUS
10
135.312
20
-88.2076
11
135.3
21
-88.1003
0
LINE
8
BLACK
6
CONTINUOUS
10
135.3
20
-88.1003
11
135.3
21
-87.1997
0
LINE
8
BLACK
6
CONTINUOUS
10
135.3
20
-87.1997
11
135.312
21
-87.0924
0
LINE
8
BLACK
6
CONTINUOUS
10
135.312
20
-87.0924
11
135.361
21
-86.9597
0
LINE
8
BLACK
6
CONTINUOUS
10
135.361
20
-86.9597
11
135.446
21
-86.8464
0
LINE
8
BLACK
6
CONTINUOUS
10
135.446
20
-86.8464
11
135.56
21
-86.7614
0
LINE
8
BLACK
6
CONTINUOUS
10
135.56
20
-86.7614
11
135.692
21
-86.7117
0
LINE
8
BLACK
6
CONTINUOUS
10
135.692
20
-86.7117
11
135.8
21
-86.7
0
LINE
8
BLACK
6
CONTINUOUS
10
135.8
20
-86.7
11
136.7
21
-86.7
0
LINE
8
BLACK
6
CONTINUOUS
10
136.7
20
-86.7
11
136.808
21
-86.7117
0
LINE
8
BLACK
6
CONTINUOUS
10
127.05
20
-86.45
11
127.045
21
-86.45
0
LINE
8
BLACK
6
CONTINUOUS
10
127.045
20
-86.45
11
127.044
21
-86.5299
0
LINE
8
BLACK
6
CONTINUOUS
10
127.044
20
-86.5299
11
127.001
21
-86.6653
0
LINE
8
BLACK
6
CONTINUOUS
10
127.001
20
-86.6653
11
126.923
21
-86.7833
0
LINE
8
BLACK
6
CONTINUOUS
10
126.923
20
-86.7833
11
126.814
21
-86.8745
0
LINE
8
BLACK
6
CONTINUOUS
10
126.814
20
-86.8745
11
126.684
21
-86.9316
0
LINE
8
BLACK
6
CONTINUOUS
10
126.684
20
-86.9316
11
126.55
21
-86.9492
0
LINE
8
BLACK
6
CONTINUOUS
10
126.55
20
-86.9492
11
126.55
21
-86.95
0
LINE
8
BLACK
6
CONTINUOUS
10
126.55
20
-86.95
11
126.05
21
-86.95
0
LINE
8
BLACK
6
CONTINUOUS
10
126.05
20
-86.95
11
126.05
21
-86.9492
0
LINE
8
BLACK
6
CONTINUOUS
10
126.05
20
-86.9492
11
126.044
21
-86.95
0
LINE
8
BLACK
6
CONTINUOUS
10
126.044
20
-86.95
11
125.904
21
-86.9282
0
LINE
8
BLACK
6
CONTINUOUS
10
125.904
20
-86.9282
11
125.775
21
-86.8679
0
LINE
8
BLACK
6
CONTINUOUS
10
125.775
20
-86.8679
11
125.669
21
-86.7741
0
LINE
8
BLACK
6
CONTINUOUS
10
125.669
20
-86.7741
11
125.594
21
-86.6542
0
LINE
8
BLACK
6
CONTINUOUS
10
125.594
20
-86.6542
11
125.555
21
-86.5179
0
LINE
8
BLACK
6
CONTINUOUS
10
125.555
20
-86.5179
11
125.555
21
-86.45
0
LINE
8
BLACK
6
CONTINUOUS
10
125.555
20
-86.45
11
125.55
21
-86.45
0
LINE
8
BLACK
6
CONTINUOUS
10
125.55
20
-86.45
11
125.55
21
-85.9
0
LINE
8
BLACK
6
CONTINUOUS
10
125.55
20
-85.9
11
127.05
21
-85.9
0
LINE
8
BLACK
6
CONTINUOUS
10
127.05
20
-85.9
11
127.05
21
-86.45
0
LINE
8
BLACK
6
CONTINUOUS
10
141.745
20
-84.6553
11
141.924
21
-84.6953
0
LINE
8
BLACK
6
CONTINUOUS
10
141.924
20
-84.6953
11
142.09
21
-84.7729
0
LINE
8
BLACK
6
CONTINUOUS
10
142.09
20
-84.7729
11
142.236
21
-84.8845
0
LINE
8
BLACK
6
CONTINUOUS
10
142.236
20
-84.8845
11
142.355
21
-85.0247
0
LINE
8
BLACK
6
CONTINUOUS
10
142.355
20
-85.0247
11
142.44
21
-85.1871
0
LINE
8
BLACK
6
CONTINUOUS
10
142.44
20
-85.1871
11
142.489
21
-85.3641
0
LINE
8
BLACK
6
CONTINUOUS
10
142.489
20
-85.3641
11
142.499
21
-85.5474
0
LINE
8
BLACK
6
CONTINUOUS
10
142.499
20
-85.5474
11
142.469
21
-85.7286
0
LINE
8
BLACK
6
CONTINUOUS
10
142.469
20
-85.7286
11
142.401
21
-85.8991
0
LINE
8
BLACK
6
CONTINUOUS
10
142.401
20
-85.8991
11
142.297
21
-86.0509
0
LINE
8
BLACK
6
CONTINUOUS
10
142.297
20
-86.0509
11
142.164
21
-86.1771
0
LINE
8
BLACK
6
CONTINUOUS
10
142.164
20
-86.1771
11
142.007
21
-86.2716
0
LINE
8
BLACK
6
CONTINUOUS
10
142.007
20
-86.2716
11
141.833
21
-86.3302
0
LINE
8
BLACK
6
CONTINUOUS
10
141.833
20
-86.3302
11
141.65
21
-86.35
0
LINE
8
BLACK
6
CONTINUOUS
10
141.65
20
-86.35
11
141.4
21
-86.35
0
LINE
8
BLACK
6
CONTINUOUS
10
141.4
20
-86.35
11
141.305
21
-86.3447
0
LINE
8
BLACK
6
CONTINUOUS
10
141.305
20
-86.3447
11
141.126
21
-86.3047
0
LINE
8
BLACK
6
CONTINUOUS
10
141.126
20
-86.3047
11
140.96
21
-86.2271
0
LINE
8
BLACK
6
CONTINUOUS
10
140.96
20
-86.2271
11
140.814
21
-86.1155
0
LINE
8
BLACK
6
CONTINUOUS
10
140.814
20
-86.1155
11
140.695
21
-85.9753
0
LINE
8
BLACK
6
CONTINUOUS
10
140.695
20
-85.9753
11
140.61
21
-85.8129
0
LINE
8
BLACK
6
CONTINUOUS
10
140.61
20
-85.8129
11
140.561
21
-85.6359
0
LINE
8
BLACK
6
CONTINUOUS
10
140.561
20
-85.6359
11
140.551
21
-85.4526
0
LINE
8
BLACK
6
CONTINUOUS
10
140.551
20
-85.4526
11
140.581
21
-85.2714
0
LINE
8
BLACK
6
CONTINUOUS
10
140.581
20
-85.2714
11
140.649
21
-85.1009
0
LINE
8
BLACK
6
CONTINUOUS
10
140.649
20
-85.1009
11
140.753
21
-84.9491
0
LINE
8
BLACK
6
CONTINUOUS
10
140.753
20
-84.9491
11
140.886
21
-84.823
0
LINE
8
BLACK
6
CONTINUOUS
10
140.886
20
-84.823
11
141.043
21
-84.7284
0
LINE
8
BLACK
6
CONTINUOUS
10
141.043
20
-84.7284
11
141.217
21
-84.6698
0
LINE
8
BLACK
6
CONTINUOUS
10
141.217
20
-84.6698
11
141.4
21
-84.65
0
LINE
8
BLACK
6
CONTINUOUS
10
141.4
20
-84.65
11
141.65
21
-84.65
0
LINE
8
BLACK
6
CONTINUOUS
10
141.65
20
-84.65
11
141.745
21
-84.6553
0
LINE
8
BLACK
6
CONTINUOUS
10
136.808
20
-84.1717
11
136.94
21
-84.2214
0
LINE
8
BLACK
6
CONTINUOUS
10
136.94
20
-84.2214
11
137.054
21
-84.3064
0
LINE
8
BLACK
6
CONTINUOUS
10
137.054
20
-84.3064
11
137.139
21
-84.4197
0
LINE
8
BLACK
6
CONTINUOUS
10
137.139
20
-84.4197
11
137.188
21
-84.5524
0
LINE
8
BLACK
6
CONTINUOUS
10
137.188
20
-84.5524
11
137.2
21
-84.6597
0
LINE
8
BLACK
6
CONTINUOUS
10
137.2
20
-84.6597
11
137.2
21
-85.5603
0
LINE
8
BLACK
6
CONTINUOUS
10
137.2
20
-85.5603
11
137.188
21
-85.6676
0
LINE
8
BLACK
6
CONTINUOUS
10
137.188
20
-85.6676
11
137.139
21
-85.8003
0
LINE
8
BLACK
6
CONTINUOUS
10
137.139
20
-85.8003
11
137.054
21
-85.9136
0
LINE
8
BLACK
6
CONTINUOUS
10
137.054
20
-85.9136
11
136.94
21
-85.9986
0
LINE
8
BLACK
6
CONTINUOUS
10
136.94
20
-85.9986
11
136.808
21
-86.0483
0
LINE
8
BLACK
6
CONTINUOUS
10
136.808
20
-86.0483
11
136.7
21
-86.06
0
LINE
8
BLACK
6
CONTINUOUS
10
136.7
20
-86.06
11
135.8
21
-86.06
0
LINE
8
BLACK
6
CONTINUOUS
10
135.8
20
-86.06
11
135.692
21
-86.0483
0
LINE
8
BLACK
6
CONTINUOUS
10
135.692
20
-86.0483
11
135.56
21
-85.9986
0
LINE
8
BLACK
6
CONTINUOUS
10
135.56
20
-85.9986
11
135.446
21
-85.9136
0
LINE
8
BLACK
6
CONTINUOUS
10
135.446
20
-85.9136
11
135.361
21
-85.8003
0
LINE
8
BLACK
6
CONTINUOUS
10
135.361
20
-85.8003
11
135.312
21
-85.6676
0
LINE
8
BLACK
6
CONTINUOUS
10
135.312
20
-85.6676
11
135.3
21
-85.5603
0
LINE
8
BLACK
6
CONTINUOUS
10
135.3
20
-85.5603
11
135.3
21
-84.6597
0
LINE
8
BLACK
6
CONTINUOUS
10
135.3
20
-84.6597
11
135.312
21
-84.5524
0
LINE
8
BLACK
6
CONTINUOUS
10
135.312
20
-84.5524
11
135.361
21
-84.4197
0
LINE
8
BLACK
6
CONTINUOUS
10
135.361
20
-84.4197
11
135.446
21
-84.3064
0
LINE
8
BLACK
6
CONTINUOUS
10
135.446
20
-84.3064
11
135.56
21
-84.2214
0
LINE
8
BLACK
6
CONTINUOUS
10
135.56
20
-84.2214
11
135.692
21
-84.1717
0
LINE
8
BLACK
6
CONTINUOUS
10
135.692
20
-84.1717
11
135.8
21
-84.16
0
LINE
8
BLACK
6
CONTINUOUS
10
135.8
20
-84.16
11
136.7
21
-84.16
0
LINE
8
BLACK
6
CONTINUOUS
10
136.7
20
-84.16
11
136.808
21
-84.1717
0
LINE
8
BLACK
6
CONTINUOUS
10
108.308
20
-84.1717
11
108.44
21
-84.2214
0
LINE
8
BLACK
6
CONTINUOUS
10
108.44
20
-84.2214
11
108.554
21
-84.3064
0
LINE
8
BLACK
6
CONTINUOUS
10
108.554
20
-84.3064
11
108.639
21
-84.4197
0
LINE
8
BLACK
6
CONTINUOUS
10
108.639
20
-84.4197
11
108.688
21
-84.5524
0
LINE
8
BLACK
6
CONTINUOUS
10
108.688
20
-84.5524
11
108.7
21
-84.6597
0
LINE
8
BLACK
6
CONTINUOUS
10
108.7
20
-84.6597
11
108.7
21
-85.5603
0
LINE
8
BLACK
6
CONTINUOUS
10
108.7
20
-85.5603
11
108.688
21
-85.6676
0
LINE
8
BLACK
6
CONTINUOUS
10
108.688
20
-85.6676
11
108.639
21
-85.8003
0
LINE
8
BLACK
6
CONTINUOUS
10
108.639
20
-85.8003
11
108.554
21
-85.9136
0
LINE
8
BLACK
6
CONTINUOUS
10
108.554
20
-85.9136
11
108.44
21
-85.9986
0
LINE
8
BLACK
6
CONTINUOUS
10
108.44
20
-85.9986
11
108.308
21
-86.0483
0
LINE
8
BLACK
6
CONTINUOUS
10
108.308
20
-86.0483
11
108.2
21
-86.06
0
LINE
8
BLACK
6
CONTINUOUS
10
108.2
20
-86.06
11
107.3
21
-86.06
0
LINE
8
BLACK
6
CONTINUOUS
10
107.3
20
-86.06
11
107.192
21
-86.0483
0
LINE
8
BLACK
6
CONTINUOUS
10
107.192
20
-86.0483
11
107.06
21
-85.9986
0
LINE
8
BLACK
6
CONTINUOUS
10
107.06
20
-85.9986
11
106.946
21
-85.9136
0
LINE
8
BLACK
6
CONTINUOUS
10
106.946
20
-85.9136
11
106.861
21
-85.8003
0
LINE
8
BLACK
6
CONTINUOUS
10
106.861
20
-85.8003
11
106.812
21
-85.6676
0
LINE
8
BLACK
6
CONTINUOUS
10
106.812
20
-85.6676
11
106.8
21
-85.5603
0
LINE
8
BLACK
6
CONTINUOUS
10
106.8
20
-85.5603
11
106.8
21
-84.6597
0
LINE
8
BLACK
6
CONTINUOUS
10
106.8
20
-84.6597
11
106.812
21
-84.5524
0
LINE
8
BLACK
6
CONTINUOUS
10
106.812
20
-84.5524
11
106.861
21
-84.4197
0
LINE
8
BLACK
6
CONTINUOUS
10
106.861
20
-84.4197
11
106.946
21
-84.3064
0
LINE
8
BLACK
6
CONTINUOUS
10
106.946
20
-84.3064
11
107.06
21
-84.2214
0
LINE
8
BLACK
6
CONTINUOUS
10
107.06
20
-84.2214
11
107.192
21
-84.1717
0
LINE
8
BLACK
6
CONTINUOUS
10
107.192
20
-84.1717
11
107.3
21
-84.16
0
LINE
8
BLACK
6
CONTINUOUS
10
107.3
20
-84.16
11
108.2
21
-84.16
0
LINE
8
BLACK
6
CONTINUOUS
10
108.2
20
-84.16
11
108.308
21
-84.1717
0
LINE
8
BLACK
6
CONTINUOUS
10
121.008
20
-84.1717
11
121.14
21
-84.2214
0
LINE
8
BLACK
6
CONTINUOUS
10
121.14
20
-84.2214
11
121.254
21
-84.3064
0
LINE
8
BLACK
6
CONTINUOUS
10
121.254
20
-84.3064
11
121.339
21
-84.4197
0
LINE
8
BLACK
6
CONTINUOUS
10
121.339
20
-84.4197
11
121.388
21
-84.5524
0
LINE
8
BLACK
6
CONTINUOUS
10
121.388
20
-84.5524
11
121.4
21
-84.6597
0
LINE
8
BLACK
6
CONTINUOUS
10
121.4
20
-84.6597
11
121.4
21
-85.5603
0
LINE
8
BLACK
6
CONTINUOUS
10
121.4
20
-85.5603
11
121.388
21
-85.6676
0
LINE
8
BLACK
6
CONTINUOUS
10
121.388
20
-85.6676
11
121.339
21
-85.8003
0
LINE
8
BLACK
6
CONTINUOUS
10
121.339
20
-85.8003
11
121.254
21
-85.9136
0
LINE
8
BLACK
6
CONTINUOUS
10
121.254
20
-85.9136
11
121.14
21
-85.9986
0
LINE
8
BLACK
6
CONTINUOUS
10
121.14
20
-85.9986
11
121.008
21
-86.0483
0
LINE
8
BLACK
6
CONTINUOUS
10
121.008
20
-86.0483
11
120.9
21
-86.06
0
LINE
8
BLACK
6
CONTINUOUS
10
120.9
20
-86.06
11
120
21
-86.06
0
LINE
8
BLACK
6
CONTINUOUS
10
120
20
-86.06
11
119.892
21
-86.0483
0
LINE
8
BLACK
6
CONTINUOUS
10
119.892
20
-86.0483
11
119.76
21
-85.9986
0
LINE
8
BLACK
6
CONTINUOUS
10
119.76
20
-85.9986
11
119.646
21
-85.9136
0
LINE
8
BLACK
6
CONTINUOUS
10
119.646
20
-85.9136
11
119.561
21
-85.8003
0
LINE
8
BLACK
6
CONTINUOUS
10
119.561
20
-85.8003
11
119.512
21
-85.6676
0
LINE
8
BLACK
6
CONTINUOUS
10
119.512
20
-85.6676
11
119.5
21
-85.5603
0
LINE
8
BLACK
6
CONTINUOUS
10
119.5
20
-85.5603
11
119.5
21
-84.6597
0
LINE
8
BLACK
6
CONTINUOUS
10
119.5
20
-84.6597
11
119.512
21
-84.5524
0
LINE
8
BLACK
6
CONTINUOUS
10
119.512
20
-84.5524
11
119.561
21
-84.4197
0
LINE
8
BLACK
6
CONTINUOUS
10
119.561
20
-84.4197
11
119.646
21
-84.3064
0
LINE
8
BLACK
6
CONTINUOUS
10
119.646
20
-84.3064
11
119.76
21
-84.2214
0
LINE
8
BLACK
6
CONTINUOUS
10
119.76
20
-84.2214
11
119.892
21
-84.1717
0
LINE
8
BLACK
6
CONTINUOUS
10
119.892
20
-84.1717
11
120
21
-84.16
0
LINE
8
BLACK
6
CONTINUOUS
10
120
20
-84.16
11
120.9
21
-84.16
0
LINE
8
BLACK
6
CONTINUOUS
10
120.9
20
-84.16
11
121.008
21
-84.1717
0
LINE
8
BLACK
6
CONTINUOUS
10
124.108
20
-84.1717
11
124.24
21
-84.2214
0
LINE
8
BLACK
6
CONTINUOUS
10
124.24
20
-84.2214
11
124.354
21
-84.3064
0
LINE
8
BLACK
6
CONTINUOUS
10
124.354
20
-84.3064
11
124.439
21
-84.4197
0
LINE
8
BLACK
6
CONTINUOUS
10
124.439
20
-84.4197
11
124.488
21
-84.5524
0
LINE
8
BLACK
6
CONTINUOUS
10
124.488
20
-84.5524
11
124.5
21
-84.6597
0
LINE
8
BLACK
6
CONTINUOUS
10
124.5
20
-84.6597
11
124.5
21
-85.5603
0
LINE
8
BLACK
6
CONTINUOUS
10
124.5
20
-85.5603
11
124.488
21
-85.6676
0
LINE
8
BLACK
6
CONTINUOUS
10
124.488
20
-85.6676
11
124.439
21
-85.8003
0
LINE
8
BLACK
6
CONTINUOUS
10
124.439
20
-85.8003
11
124.354
21
-85.9136
0
LINE
8
BLACK
6
CONTINUOUS
10
124.354
20
-85.9136
11
124.24
21
-85.9986
0
LINE
8
BLACK
6
CONTINUOUS
10
124.24
20
-85.9986
11
124.108
21
-86.0483
0
LINE
8
BLACK
6
CONTINUOUS
10
124.108
20
-86.0483
11
124
21
-86.06
0
LINE
8
BLACK
6
CONTINUOUS
10
124
20
-86.06
11
123.1
21
-86.06
0
LINE
8
BLACK
6
CONTINUOUS
10
123.1
20
-86.06
11
122.992
21
-86.0483
0
LINE
8
BLACK
6
CONTINUOUS
10
122.992
20
-86.0483
11
122.86
21
-85.9986
0
LINE
8
BLACK
6
CONTINUOUS
10
122.86
20
-85.9986
11
122.746
21
-85.9136
0
LINE
8
BLACK
6
CONTINUOUS
10
122.746
20
-85.9136
11
122.661
21
-85.8003
0
LINE
8
BLACK
6
CONTINUOUS
10
122.661
20
-85.8003
11
122.612
21
-85.6676
0
LINE
8
BLACK
6
CONTINUOUS
10
122.612
20
-85.6676
11
122.6
21
-85.5603
0
LINE
8
BLACK
6
CONTINUOUS
10
122.6
20
-85.5603
11
122.6
21
-84.6597
0
LINE
8
BLACK
6
CONTINUOUS
10
122.6
20
-84.6597
11
122.612
21
-84.5524
0
LINE
8
BLACK
6
CONTINUOUS
10
122.612
20
-84.5524
11
122.661
21
-84.4197
0
LINE
8
BLACK
6
CONTINUOUS
10
122.661
20
-84.4197
11
122.746
21
-84.3064
0
LINE
8
BLACK
6
CONTINUOUS
10
122.746
20
-84.3064
11
122.86
21
-84.2214
0
LINE
8
BLACK
6
CONTINUOUS
10
122.86
20
-84.2214
11
122.992
21
-84.1717
0
LINE
8
BLACK
6
CONTINUOUS
10
122.992
20
-84.1717
11
123.1
21
-84.16
0
LINE
8
BLACK
6
CONTINUOUS
10
123.1
20
-84.16
11
124
21
-84.16
0
LINE
8
BLACK
6
CONTINUOUS
10
124
20
-84.16
11
124.108
21
-84.1717
0
LINE
8
BLACK
6
CONTINUOUS
10
117.9
20
-84.405
11
117.974
21
-84.4055
0
LINE
8
BLACK
6
CONTINUOUS
10
117.974
20
-84.4055
11
118.11
21
-84.4461
0
LINE
8
BLACK
6
CONTINUOUS
10
118.11
20
-84.4461
11
118.229
21
-84.5232
0
LINE
8
BLACK
6
CONTINUOUS
10
118.229
20
-84.5232
11
118.321
21
-84.6306
0
LINE
8
BLACK
6
CONTINUOUS
10
118.321
20
-84.6306
11
118.38
21
-84.7597
0
LINE
8
BLACK
6
CONTINUOUS
10
118.38
20
-84.7597
11
118.4
21
-84.9
0
LINE
8
BLACK
6
CONTINUOUS
10
118.4
20
-84.9
11
118.4
21
-85.4
0
LINE
8
BLACK
6
CONTINUOUS
10
118.4
20
-85.4
11
118.4
21
-85.4122
0
LINE
8
BLACK
6
CONTINUOUS
10
118.4
20
-85.4122
11
118.376
21
-85.552
0
LINE
8
BLACK
6
CONTINUOUS
10
118.376
20
-85.552
11
118.315
21
-85.6796
0
LINE
8
BLACK
6
CONTINUOUS
10
118.315
20
-85.6796
11
118.219
21
-85.7847
0
LINE
8
BLACK
6
CONTINUOUS
10
118.219
20
-85.7847
11
118.099
21
-85.8589
0
LINE
8
BLACK
6
CONTINUOUS
10
118.099
20
-85.8589
11
117.962
21
-85.8962
0
LINE
8
BLACK
6
CONTINUOUS
10
117.962
20
-85.8962
11
117.9
21
-85.895
0
LINE
8
BLACK
6
CONTINUOUS
10
117.9
20
-85.895
11
117.9
21
-85.9
0
LINE
8
BLACK
6
CONTINUOUS
10
117.9
20
-85.9
11
117.35
21
-85.9
0
LINE
8
BLACK
6
CONTINUOUS
10
117.35
20
-85.9
11
117.35
21
-84.4
0
LINE
8
BLACK
6
CONTINUOUS
10
117.35
20
-84.4
11
117.9
21
-84.4
0
LINE
8
BLACK
6
CONTINUOUS
10
117.9
20
-84.4
11
117.9
21
-84.405
0
LINE
8
BLACK
6
CONTINUOUS
10
117.1
20
-85.9
11
116.1
21
-85.9
0
LINE
8
BLACK
6
CONTINUOUS
10
116.1
20
-85.9
11
116.1
21
-84.4
0
LINE
8
BLACK
6
CONTINUOUS
10
116.1
20
-84.4
11
117.1
21
-84.4
0
LINE
8
BLACK
6
CONTINUOUS
10
117.1
20
-84.4
11
117.1
21
-85.9
0
LINE
8
BLACK
6
CONTINUOUS
10
115.85
20
-85.9
11
115.3
21
-85.9
0
LINE
8
BLACK
6
CONTINUOUS
10
115.3
20
-85.9
11
115.3
21
-85.895
0
LINE
8
BLACK
6
CONTINUOUS
10
115.3
20
-85.895
11
115.22
21
-85.8936
0
LINE
8
BLACK
6
CONTINUOUS
10
115.22
20
-85.8936
11
115.085
21
-85.8513
0
LINE
8
BLACK
6
CONTINUOUS
10
115.085
20
-85.8513
11
114.967
21
-85.7727
0
LINE
8
BLACK
6
CONTINUOUS
10
114.967
20
-85.7727
11
114.876
21
-85.6642
0
LINE
8
BLACK
6
CONTINUOUS
10
114.876
20
-85.6642
11
114.818
21
-85.5345
0
LINE
8
BLACK
6
CONTINUOUS
10
114.818
20
-85.5345
11
114.801
21
-85.4
0
LINE
8
BLACK
6
CONTINUOUS
10
114.801
20
-85.4
11
114.8
21
-85.4
0
LINE
8
BLACK
6
CONTINUOUS
10
114.8
20
-85.4
11
114.8
21
-84.9
0
LINE
8
BLACK
6
CONTINUOUS
10
114.8
20
-84.9
11
114.801
21
-84.9
0
LINE
8
BLACK
6
CONTINUOUS
10
114.801
20
-84.9
11
114.8
21
-84.8939
0
LINE
8
BLACK
6
CONTINUOUS
10
114.8
20
-84.8939
11
114.822
21
-84.7538
0
LINE
8
BLACK
6
CONTINUOUS
10
114.822
20
-84.7538
11
114.882
21
-84.6255
0
LINE
8
BLACK
6
CONTINUOUS
10
114.882
20
-84.6255
11
114.976
21
-84.5192
0
LINE
8
BLACK
6
CONTINUOUS
10
114.976
20
-84.5192
11
115.096
21
-84.4436
0
LINE
8
BLACK
6
CONTINUOUS
10
115.096
20
-84.4436
11
115.232
21
-84.4046
0
LINE
8
BLACK
6
CONTINUOUS
10
115.232
20
-84.4046
11
115.3
21
-84.405
0
LINE
8
BLACK
6
CONTINUOUS
10
115.3
20
-84.405
11
115.3
21
-84.4
0
LINE
8
BLACK
6
CONTINUOUS
10
115.3
20
-84.4
11
115.85
21
-84.4
0
LINE
8
BLACK
6
CONTINUOUS
10
115.85
20
-84.4
11
115.85
21
-85.9
0
LINE
8
BLACK
6
CONTINUOUS
10
103.296
20
-84.119
11
103.377
21
-84.1732
0
LINE
8
BLACK
6
CONTINUOUS
10
103.377
20
-84.1732
11
103.431
21
-84.2543
0
LINE
8
BLACK
6
CONTINUOUS
10
103.431
20
-84.2543
11
103.45
21
-84.35
0
LINE
8
BLACK
6
CONTINUOUS
10
103.45
20
-84.35
11
103.45
21
-85.55
0
LINE
8
BLACK
6
CONTINUOUS
10
103.45
20
-85.55
11
103.431
21
-85.6457
0
LINE
8
BLACK
6
CONTINUOUS
10
103.431
20
-85.6457
11
103.377
21
-85.7268
0
LINE
8
BLACK
6
CONTINUOUS
10
103.377
20
-85.7268
11
103.296
21
-85.781
0
LINE
8
BLACK
6
CONTINUOUS
10
103.296
20
-85.781
11
103.2
21
-85.8
0
LINE
8
BLACK
6
CONTINUOUS
10
103.2
20
-85.8
11
101.75
21
-85.8
0
LINE
8
BLACK
6
CONTINUOUS
10
101.75
20
-85.8
11
101.654
21
-85.781
0
LINE
8
BLACK
6
CONTINUOUS
10
101.654
20
-85.781
11
101.573
21
-85.7268
0
LINE
8
BLACK
6
CONTINUOUS
10
101.573
20
-85.7268
11
101.519
21
-85.6457
0
LINE
8
BLACK
6
CONTINUOUS
10
101.519
20
-85.6457
11
101.5
21
-85.55
0
LINE
8
BLACK
6
CONTINUOUS
10
101.5
20
-85.55
11
101.5
21
-84.35
0
LINE
8
BLACK
6
CONTINUOUS
10
101.5
20
-84.35
11
101.519
21
-84.2543
0
LINE
8
BLACK
6
CONTINUOUS
10
101.519
20
-84.2543
11
101.573
21
-84.1732
0
LINE
8
BLACK
6
CONTINUOUS
10
101.573
20
-84.1732
11
101.654
21
-84.119
0
LINE
8
BLACK
6
CONTINUOUS
10
101.654
20
-84.119
11
101.75
21
-84.1
0
LINE
8
BLACK
6
CONTINUOUS
10
101.75
20
-84.1
11
103.2
21
-84.1
0
LINE
8
BLACK
6
CONTINUOUS
10
103.2
20
-84.1
11
103.296
21
-84.119
0
LINE
8
BLACK
6
CONTINUOUS
10
127.05
20
-85.65
11
125.55
21
-85.65
0
LINE
8
BLACK
6
CONTINUOUS
10
125.55
20
-85.65
11
125.55
21
-84.65
0
LINE
8
BLACK
6
CONTINUOUS
10
125.55
20
-84.65
11
127.05
21
-84.65
0
LINE
8
BLACK
6
CONTINUOUS
10
127.05
20
-84.65
11
127.05
21
-85.65
0
LINE
8
BLACK
6
CONTINUOUS
10
126.562
20
-83.3501
11
126.702
21
-83.3737
0
LINE
8
BLACK
6
CONTINUOUS
10
126.702
20
-83.3737
11
126.83
21
-83.4355
0
LINE
8
BLACK
6
CONTINUOUS
10
126.83
20
-83.4355
11
126.935
21
-83.5306
0
LINE
8
BLACK
6
CONTINUOUS
10
126.935
20
-83.5306
11
127.009
21
-83.6514
0
LINE
8
BLACK
6
CONTINUOUS
10
127.009
20
-83.6514
11
127.046
21
-83.7882
0
LINE
8
BLACK
6
CONTINUOUS
10
127.046
20
-83.7882
11
127.045
21
-83.85
0
LINE
8
BLACK
6
CONTINUOUS
10
127.045
20
-83.85
11
127.05
21
-83.85
0
LINE
8
BLACK
6
CONTINUOUS
10
127.05
20
-83.85
11
127.05
21
-84.4
0
LINE
8
BLACK
6
CONTINUOUS
10
127.05
20
-84.4
11
125.55
21
-84.4
0
LINE
8
BLACK
6
CONTINUOUS
10
125.55
20
-84.4
11
125.55
21
-83.85
0
LINE
8
BLACK
6
CONTINUOUS
10
125.55
20
-83.85
11
125.555
21
-83.85
0
LINE
8
BLACK
6
CONTINUOUS
10
125.555
20
-83.85
11
125.555
21
-83.7761
0
LINE
8
BLACK
6
CONTINUOUS
10
125.555
20
-83.7761
11
125.596
21
-83.6403
0
LINE
8
BLACK
6
CONTINUOUS
10
125.596
20
-83.6403
11
125.673
21
-83.5213
0
LINE
8
BLACK
6
CONTINUOUS
10
125.673
20
-83.5213
11
125.781
21
-83.4288
0
LINE
8
BLACK
6
CONTINUOUS
10
125.781
20
-83.4288
11
125.91
21
-83.3701
0
LINE
8
BLACK
6
CONTINUOUS
10
125.91
20
-83.3701
11
126.05
21
-83.35
0
LINE
8
BLACK
6
CONTINUOUS
10
126.05
20
-83.35
11
126.55
21
-83.35
0
LINE
8
BLACK
6
CONTINUOUS
10
126.55
20
-83.35
11
126.562
21
-83.3501
0
LINE
8
BLACK
6
CONTINUOUS
10
142.346
20
-82.169
11
142.427
21
-82.2232
0
LINE
8
BLACK
6
CONTINUOUS
10
142.427
20
-82.2232
11
142.481
21
-82.3043
0
LINE
8
BLACK
6
CONTINUOUS
10
142.481
20
-82.3043
11
142.5
21
-82.4
0
LINE
8
BLACK
6
CONTINUOUS
10
142.5
20
-82.4
11
142.5
21
-83.6
0
LINE
8
BLACK
6
CONTINUOUS
10
142.5
20
-83.6
11
142.481
21
-83.6957
0
LINE
8
BLACK
6
CONTINUOUS
10
142.481
20
-83.6957
11
142.427
21
-83.7768
0
LINE
8
BLACK
6
CONTINUOUS
10
142.427
20
-83.7768
11
142.346
21
-83.831
0
LINE
8
BLACK
6
CONTINUOUS
10
142.346
20
-83.831
11
142.25
21
-83.85
0
LINE
8
BLACK
6
CONTINUOUS
10
142.25
20
-83.85
11
140.8
21
-83.85
0
LINE
8
BLACK
6
CONTINUOUS
10
140.8
20
-83.85
11
140.704
21
-83.831
0
LINE
8
BLACK
6
CONTINUOUS
10
140.704
20
-83.831
11
140.623
21
-83.7768
0
LINE
8
BLACK
6
CONTINUOUS
10
140.623
20
-83.7768
11
140.569
21
-83.6957
0
LINE
8
BLACK
6
CONTINUOUS
10
140.569
20
-83.6957
11
140.55
21
-83.6
0
LINE
8
BLACK
6
CONTINUOUS
10
140.55
20
-83.6
11
140.55
21
-82.4
0
LINE
8
BLACK
6
CONTINUOUS
10
140.55
20
-82.4
11
140.569
21
-82.3043
0
LINE
8
BLACK
6
CONTINUOUS
10
140.569
20
-82.3043
11
140.623
21
-82.2232
0
LINE
8
BLACK
6
CONTINUOUS
10
140.623
20
-82.2232
11
140.704
21
-82.169
0
LINE
8
BLACK
6
CONTINUOUS
10
140.704
20
-82.169
11
140.8
21
-82.15
0
LINE
8
BLACK
6
CONTINUOUS
10
140.8
20
-82.15
11
142.25
21
-82.15
0
LINE
8
BLACK
6
CONTINUOUS
10
142.25
20
-82.15
11
142.346
21
-82.169
0
LINE
8
BLACK
6
CONTINUOUS
10
124.108
20
-81.6317
11
124.24
21
-81.6814
0
LINE
8
BLACK
6
CONTINUOUS
10
124.24
20
-81.6814
11
124.354
21
-81.7664
0
LINE
8
BLACK
6
CONTINUOUS
10
124.354
20
-81.7664
11
124.439
21
-81.8797
0
LINE
8
BLACK
6
CONTINUOUS
10
124.439
20
-81.8797
11
124.488
21
-82.0124
0
LINE
8
BLACK
6
CONTINUOUS
10
124.488
20
-82.0124
11
124.5
21
-82.1197
0
LINE
8
BLACK
6
CONTINUOUS
10
124.5
20
-82.1197
11
124.5
21
-83.0203
0
LINE
8
BLACK
6
CONTINUOUS
10
124.5
20
-83.0203
11
124.488
21
-83.1276
0
LINE
8
BLACK
6
CONTINUOUS
10
124.488
20
-83.1276
11
124.439
21
-83.2603
0
LINE
8
BLACK
6
CONTINUOUS
10
124.439
20
-83.2603
11
124.354
21
-83.3736
0
LINE
8
BLACK
6
CONTINUOUS
10
124.354
20
-83.3736
11
124.24
21
-83.4586
0
LINE
8
BLACK
6
CONTINUOUS
10
124.24
20
-83.4586
11
124.108
21
-83.5083
0
LINE
8
BLACK
6
CONTINUOUS
10
124.108
20
-83.5083
11
124
21
-83.52
0
LINE
8
BLACK
6
CONTINUOUS
10
124
20
-83.52
11
123.1
21
-83.52
0
LINE
8
BLACK
6
CONTINUOUS
10
123.1
20
-83.52
11
122.992
21
-83.5083
0
LINE
8
BLACK
6
CONTINUOUS
10
122.992
20
-83.5083
11
122.86
21
-83.4586
0
LINE
8
BLACK
6
CONTINUOUS
10
122.86
20
-83.4586
11
122.746
21
-83.3736
0
LINE
8
BLACK
6
CONTINUOUS
10
122.746
20
-83.3736
11
122.661
21
-83.2603
0
LINE
8
BLACK
6
CONTINUOUS
10
122.661
20
-83.2603
11
122.612
21
-83.1276
0
LINE
8
BLACK
6
CONTINUOUS
10
122.612
20
-83.1276
11
122.6
21
-83.0203
0
LINE
8
BLACK
6
CONTINUOUS
10
122.6
20
-83.0203
11
122.6
21
-82.1197
0
LINE
8
BLACK
6
CONTINUOUS
10
122.6
20
-82.1197
11
122.612
21
-82.0124
0
LINE
8
BLACK
6
CONTINUOUS
10
122.612
20
-82.0124
11
122.661
21
-81.8797
0
LINE
8
BLACK
6
CONTINUOUS
10
122.661
20
-81.8797
11
122.746
21
-81.7664
0
LINE
8
BLACK
6
CONTINUOUS
10
122.746
20
-81.7664
11
122.86
21
-81.6814
0
LINE
8
BLACK
6
CONTINUOUS
10
122.86
20
-81.6814
11
122.992
21
-81.6317
0
LINE
8
BLACK
6
CONTINUOUS
10
122.992
20
-81.6317
11
123.1
21
-81.62
0
LINE
8
BLACK
6
CONTINUOUS
10
123.1
20
-81.62
11
124
21
-81.62
0
LINE
8
BLACK
6
CONTINUOUS
10
124
20
-81.62
11
124.108
21
-81.6317
0
LINE
8
BLACK
6
CONTINUOUS
10
121.008
20
-81.6317
11
121.14
21
-81.6814
0
LINE
8
BLACK
6
CONTINUOUS
10
121.14
20
-81.6814
11
121.254
21
-81.7664
0
LINE
8
BLACK
6
CONTINUOUS
10
121.254
20
-81.7664
11
121.339
21
-81.8797
0
LINE
8
BLACK
6
CONTINUOUS
10
121.339
20
-81.8797
11
121.388
21
-82.0124
0
LINE
8
BLACK
6
CONTINUOUS
10
121.388
20
-82.0124
11
121.4
21
-82.1197
0
LINE
8
BLACK
6
CONTINUOUS
10
121.4
20
-82.1197
11
121.4
21
-83.0203
0
LINE
8
BLACK
6
CONTINUOUS
10
121.4
20
-83.0203
11
121.388
21
-83.1276
0
LINE
8
BLACK
6
CONTINUOUS
10
121.388
20
-83.1276
11
121.339
21
-83.2603
0
LINE
8
BLACK
6
CONTINUOUS
10
121.339
20
-83.2603
11
121.254
21
-83.3736
0
LINE
8
BLACK
6
CONTINUOUS
10
121.254
20
-83.3736
11
121.14
21
-83.4586
0
LINE
8
BLACK
6
CONTINUOUS
10
121.14
20
-83.4586
11
121.008
21
-83.5083
0
LINE
8
BLACK
6
CONTINUOUS
10
121.008
20
-83.5083
11
120.9
21
-83.52
0
LINE
8
BLACK
6
CONTINUOUS
10
120.9
20
-83.52
11
120
21
-83.52
0
LINE
8
BLACK
6
CONTINUOUS
10
120
20
-83.52
11
119.892
21
-83.5083
0
LINE
8
BLACK
6
CONTINUOUS
10
119.892
20
-83.5083
11
119.76
21
-83.4586
0
LINE
8
BLACK
6
CONTINUOUS
10
119.76
20
-83.4586
11
119.646
21
-83.3736
0
LINE
8
BLACK
6
CONTINUOUS
10
119.646
20
-83.3736
11
119.561
21
-83.2603
0
LINE
8
BLACK
6
CONTINUOUS
10
119.561
20
-83.2603
11
119.512
21
-83.1276
0
LINE
8
BLACK
6
CONTINUOUS
10
119.512
20
-83.1276
11
119.5
21
-83.0203
0
LINE
8
BLACK
6
CONTINUOUS
10
119.5
20
-83.0203
11
119.5
21
-82.1197
0
LINE
8
BLACK
6
CONTINUOUS
10
119.5
20
-82.1197
11
119.512
21
-82.0124
0
LINE
8
BLACK
6
CONTINUOUS
10
119.512
20
-82.0124
11
119.561
21
-81.8797
0
LINE
8
BLACK
6
CONTINUOUS
10
119.561
20
-81.8797
11
119.646
21
-81.7664
0
LINE
8
BLACK
6
CONTINUOUS
10
119.646
20
-81.7664
11
119.76
21
-81.6814
0
LINE
8
BLACK
6
CONTINUOUS
10
119.76
20
-81.6814
11
119.892
21
-81.6317
0
LINE
8
BLACK
6
CONTINUOUS
10
119.892
20
-81.6317
11
120
21
-81.62
0
LINE
8
BLACK
6
CONTINUOUS
10
120
20
-81.62
11
120.9
21
-81.62
0
LINE
8
BLACK
6
CONTINUOUS
10
120.9
20
-81.62
11
121.008
21
-81.6317
0
LINE
8
BLACK
6
CONTINUOUS
10
108.308
20
-81.6317
11
108.44
21
-81.6814
0
LINE
8
BLACK
6
CONTINUOUS
10
108.44
20
-81.6814
11
108.554
21
-81.7664
0
LINE
8
BLACK
6
CONTINUOUS
10
108.554
20
-81.7664
11
108.639
21
-81.8797
0
LINE
8
BLACK
6
CONTINUOUS
10
108.639
20
-81.8797
11
108.688
21
-82.0124
0
LINE
8
BLACK
6
CONTINUOUS
10
108.688
20
-82.0124
11
108.7
21
-82.1197
0
LINE
8
BLACK
6
CONTINUOUS
10
108.7
20
-82.1197
11
108.7
21
-83.0203
0
LINE
8
BLACK
6
CONTINUOUS
10
108.7
20
-83.0203
11
108.688
21
-83.1276
0
LINE
8
BLACK
6
CONTINUOUS
10
108.688
20
-83.1276
11
108.639
21
-83.2603
0
LINE
8
BLACK
6
CONTINUOUS
10
108.639
20
-83.2603
11
108.554
21
-83.3736
0
LINE
8
BLACK
6
CONTINUOUS
10
108.554
20
-83.3736
11
108.44
21
-83.4586
0
LINE
8
BLACK
6
CONTINUOUS
10
108.44
20
-83.4586
11
108.308
21
-83.5083
0
LINE
8
BLACK
6
CONTINUOUS
10
108.308
20
-83.5083
11
108.2
21
-83.52
0
LINE
8
BLACK
6
CONTINUOUS
10
108.2
20
-83.52
11
107.3
21
-83.52
0
LINE
8
BLACK
6
CONTINUOUS
10
107.3
20
-83.52
11
107.192
21
-83.5083
0
LINE
8
BLACK
6
CONTINUOUS
10
107.192
20
-83.5083
11
107.06
21
-83.4586
0
LINE
8
BLACK
6
CONTINUOUS
10
107.06
20
-83.4586
11
106.946
21
-83.3736
0
LINE
8
BLACK
6
CONTINUOUS
10
106.946
20
-83.3736
11
106.861
21
-83.2603
0
LINE
8
BLACK
6
CONTINUOUS
10
106.861
20
-83.2603
11
106.812
21
-83.1276
0
LINE
8
BLACK
6
CONTINUOUS
10
106.812
20
-83.1276
11
106.8
21
-83.0203
0
LINE
8
BLACK
6
CONTINUOUS
10
106.8
20
-83.0203
11
106.8
21
-82.1197
0
LINE
8
BLACK
6
CONTINUOUS
10
106.8
20
-82.1197
11
106.812
21
-82.0124
0
LINE
8
BLACK
6
CONTINUOUS
10
106.812
20
-82.0124
11
106.861
21
-81.8797
0
LINE
8
BLACK
6
CONTINUOUS
10
106.861
20
-81.8797
11
106.946
21
-81.7664
0
LINE
8
BLACK
6
CONTINUOUS
10
106.946
20
-81.7664
11
107.06
21
-81.6814
0
LINE
8
BLACK
6
CONTINUOUS
10
107.06
20
-81.6814
11
107.192
21
-81.6317
0
LINE
8
BLACK
6
CONTINUOUS
10
107.192
20
-81.6317
11
107.3
21
-81.62
0
LINE
8
BLACK
6
CONTINUOUS
10
107.3
20
-81.62
11
108.2
21
-81.62
0
LINE
8
BLACK
6
CONTINUOUS
10
108.2
20
-81.62
11
108.308
21
-81.6317
0
LINE
8
BLACK
6
CONTINUOUS
10
136.808
20
-81.6317
11
136.94
21
-81.6814
0
LINE
8
BLACK
6
CONTINUOUS
10
136.94
20
-81.6814
11
137.054
21
-81.7664
0
LINE
8
BLACK
6
CONTINUOUS
10
137.054
20
-81.7664
11
137.139
21
-81.8797
0
LINE
8
BLACK
6
CONTINUOUS
10
137.139
20
-81.8797
11
137.188
21
-82.0124
0
LINE
8
BLACK
6
CONTINUOUS
10
137.188
20
-82.0124
11
137.2
21
-82.1197
0
LINE
8
BLACK
6
CONTINUOUS
10
137.2
20
-82.1197
11
137.2
21
-83.0203
0
LINE
8
BLACK
6
CONTINUOUS
10
137.2
20
-83.0203
11
137.188
21
-83.1276
0
LINE
8
BLACK
6
CONTINUOUS
10
137.188
20
-83.1276
11
137.139
21
-83.2603
0
LINE
8
BLACK
6
CONTINUOUS
10
137.139
20
-83.2603
11
137.054
21
-83.3736
0
LINE
8
BLACK
6
CONTINUOUS
10
137.054
20
-83.3736
11
136.94
21
-83.4586
0
LINE
8
BLACK
6
CONTINUOUS
10
136.94
20
-83.4586
11
136.808
21
-83.5083
0
LINE
8
BLACK
6
CONTINUOUS
10
136.808
20
-83.5083
11
136.7
21
-83.52
0
LINE
8
BLACK
6
CONTINUOUS
10
136.7
20
-83.52
11
135.8
21
-83.52
0
LINE
8
BLACK
6
CONTINUOUS
10
135.8
20
-83.52
11
135.692
21
-83.5083
0
LINE
8
BLACK
6
CONTINUOUS
10
135.692
20
-83.5083
11
135.56
21
-83.4586
0
LINE
8
BLACK
6
CONTINUOUS
10
135.56
20
-83.4586
11
135.446
21
-83.3736
0
LINE
8
BLACK
6
CONTINUOUS
10
135.446
20
-83.3736
11
135.361
21
-83.2603
0
LINE
8
BLACK
6
CONTINUOUS
10
135.361
20
-83.2603
11
135.312
21
-83.1276
0
LINE
8
BLACK
6
CONTINUOUS
10
135.312
20
-83.1276
11
135.3
21
-83.0203
0
LINE
8
BLACK
6
CONTINUOUS
10
135.3
20
-83.0203
11
135.3
21
-82.1197
0
LINE
8
BLACK
6
CONTINUOUS
10
135.3
20
-82.1197
11
135.312
21
-82.0124
0
LINE
8
BLACK
6
CONTINUOUS
10
135.312
20
-82.0124
11
135.361
21
-81.8797
0
LINE
8
BLACK
6
CONTINUOUS
10
135.361
20
-81.8797
11
135.446
21
-81.7664
0
LINE
8
BLACK
6
CONTINUOUS
10
135.446
20
-81.7664
11
135.56
21
-81.6814
0
LINE
8
BLACK
6
CONTINUOUS
10
135.56
20
-81.6814
11
135.692
21
-81.6317
0
LINE
8
BLACK
6
CONTINUOUS
10
135.692
20
-81.6317
11
135.8
21
-81.62
0
LINE
8
BLACK
6
CONTINUOUS
10
135.8
20
-81.62
11
136.7
21
-81.62
0
LINE
8
BLACK
6
CONTINUOUS
10
136.7
20
-81.62
11
136.808
21
-81.6317
0
LINE
8
BLACK
6
CONTINUOUS
10
117.9
20
-81.905
11
117.974
21
-81.9055
0
LINE
8
BLACK
6
CONTINUOUS
10
117.974
20
-81.9055
11
118.11
21
-81.9461
0
LINE
8
BLACK
6
CONTINUOUS
10
118.11
20
-81.9461
11
118.229
21
-82.0232
0
LINE
8
BLACK
6
CONTINUOUS
10
118.229
20
-82.0232
11
118.321
21
-82.1306
0
LINE
8
BLACK
6
CONTINUOUS
10
118.321
20
-82.1306
11
118.38
21
-82.2597
0
LINE
8
BLACK
6
CONTINUOUS
10
118.38
20
-82.2597
11
118.4
21
-82.4
0
LINE
8
BLACK
6
CONTINUOUS
10
118.4
20
-82.4
11
118.4
21
-82.9
0
LINE
8
BLACK
6
CONTINUOUS
10
118.4
20
-82.9
11
118.4
21
-82.9122
0
LINE
8
BLACK
6
CONTINUOUS
10
118.4
20
-82.9122
11
118.376
21
-83.052
0
LINE
8
BLACK
6
CONTINUOUS
10
118.376
20
-83.052
11
118.315
21
-83.1796
0
LINE
8
BLACK
6
CONTINUOUS
10
118.315
20
-83.1796
11
118.219
21
-83.2847
0
LINE
8
BLACK
6
CONTINUOUS
10
118.219
20
-83.2847
11
118.099
21
-83.3589
0
LINE
8
BLACK
6
CONTINUOUS
10
118.099
20
-83.3589
11
117.962
21
-83.3962
0
LINE
8
BLACK
6
CONTINUOUS
10
117.962
20
-83.3962
11
117.9
21
-83.395
0
LINE
8
BLACK
6
CONTINUOUS
10
117.9
20
-83.395
11
117.9
21
-83.4
0
LINE
8
BLACK
6
CONTINUOUS
10
117.9
20
-83.4
11
117.35
21
-83.4
0
LINE
8
BLACK
6
CONTINUOUS
10
117.35
20
-83.4
11
117.35
21
-81.9
0
LINE
8
BLACK
6
CONTINUOUS
10
117.35
20
-81.9
11
117.9
21
-81.9
0
LINE
8
BLACK
6
CONTINUOUS
10
117.9
20
-81.9
11
117.9
21
-81.905
0
LINE
8
BLACK
6
CONTINUOUS
10
117.1
20
-83.4
11
116.1
21
-83.4
0
LINE
8
BLACK
6
CONTINUOUS
10
116.1
20
-83.4
11
116.1
21
-81.9
0
LINE
8
BLACK
6
CONTINUOUS
10
116.1
20
-81.9
11
117.1
21
-81.9
0
LINE
8
BLACK
6
CONTINUOUS
10
117.1
20
-81.9
11
117.1
21
-83.4
0
LINE
8
BLACK
6
CONTINUOUS
10
115.85
20
-83.4
11
115.3
21
-83.4
0
LINE
8
BLACK
6
CONTINUOUS
10
115.3
20
-83.4
11
115.3
21
-83.395
0
LINE
8
BLACK
6
CONTINUOUS
10
115.3
20
-83.395
11
115.22
21
-83.3936
0
LINE
8
BLACK
6
CONTINUOUS
10
115.22
20
-83.3936
11
115.085
21
-83.3513
0
LINE
8
BLACK
6
CONTINUOUS
10
115.085
20
-83.3513
11
114.967
21
-83.2727
0
LINE
8
BLACK
6
CONTINUOUS
10
114.967
20
-83.2727
11
114.876
21
-83.1642
0
LINE
8
BLACK
6
CONTINUOUS
10
114.876
20
-83.1642
11
114.818
21
-83.0345
0
LINE
8
BLACK
6
CONTINUOUS
10
114.818
20
-83.0345
11
114.801
21
-82.9
0
LINE
8
BLACK
6
CONTINUOUS
10
114.801
20
-82.9
11
114.8
21
-82.9
0
LINE
8
BLACK
6
CONTINUOUS
10
114.8
20
-82.9
11
114.8
21
-82.4
0
LINE
8
BLACK
6
CONTINUOUS
10
114.8
20
-82.4
11
114.801
21
-82.4
0
LINE
8
BLACK
6
CONTINUOUS
10
114.801
20
-82.4
11
114.8
21
-82.3939
0
LINE
8
BLACK
6
CONTINUOUS
10
114.8
20
-82.3939
11
114.822
21
-82.2538
0
LINE
8
BLACK
6
CONTINUOUS
10
114.822
20
-82.2538
11
114.882
21
-82.1255
0
LINE
8
BLACK
6
CONTINUOUS
10
114.882
20
-82.1255
11
114.976
21
-82.0192
0
LINE
8
BLACK
6
CONTINUOUS
10
114.976
20
-82.0192
11
115.096
21
-81.9436
0
LINE
8
BLACK
6
CONTINUOUS
10
115.096
20
-81.9436
11
115.232
21
-81.9046
0
LINE
8
BLACK
6
CONTINUOUS
10
115.232
20
-81.9046
11
115.3
21
-81.905
0
LINE
8
BLACK
6
CONTINUOUS
10
115.3
20
-81.905
11
115.3
21
-81.9
0
LINE
8
BLACK
6
CONTINUOUS
10
115.3
20
-81.9
11
115.85
21
-81.9
0
LINE
8
BLACK
6
CONTINUOUS
10
115.85
20
-81.9
11
115.85
21
-83.4
0
LINE
8
BLACK
6
CONTINUOUS
10
102.695
20
-81.6053
11
102.874
21
-81.6453
0
LINE
8
BLACK
6
CONTINUOUS
10
102.874
20
-81.6453
11
103.04
21
-81.7229
0
LINE
8
BLACK
6
CONTINUOUS
10
103.04
20
-81.7229
11
103.186
21
-81.8345
0
LINE
8
BLACK
6
CONTINUOUS
10
103.186
20
-81.8345
11
103.305
21
-81.9747
0
LINE
8
BLACK
6
CONTINUOUS
10
103.305
20
-81.9747
11
103.39
21
-82.1371
0
LINE
8
BLACK
6
CONTINUOUS
10
103.39
20
-82.1371
11
103.439
21
-82.3141
0
LINE
8
BLACK
6
CONTINUOUS
10
103.439
20
-82.3141
11
103.449
21
-82.4974
0
LINE
8
BLACK
6
CONTINUOUS
10
103.449
20
-82.4974
11
103.419
21
-82.6786
0
LINE
8
BLACK
6
CONTINUOUS
10
103.419
20
-82.6786
11
103.351
21
-82.8491
0
LINE
8
BLACK
6
CONTINUOUS
10
103.351
20
-82.8491
11
103.247
21
-83.0009
0
LINE
8
BLACK
6
CONTINUOUS
10
103.247
20
-83.0009
11
103.114
21
-83.1271
0
LINE
8
BLACK
6
CONTINUOUS
10
103.114
20
-83.1271
11
102.957
21
-83.2216
0
LINE
8
BLACK
6
CONTINUOUS
10
102.957
20
-83.2216
11
102.783
21
-83.2802
0
LINE
8
BLACK
6
CONTINUOUS
10
102.783
20
-83.2802
11
102.6
21
-83.3
0
LINE
8
BLACK
6
CONTINUOUS
10
102.6
20
-83.3
11
102.35
21
-83.3
0
LINE
8
BLACK
6
CONTINUOUS
10
102.35
20
-83.3
11
102.255
21
-83.2947
0
LINE
8
BLACK
6
CONTINUOUS
10
102.255
20
-83.2947
11
102.076
21
-83.2547
0
LINE
8
BLACK
6
CONTINUOUS
10
102.076
20
-83.2547
11
101.91
21
-83.1771
0
LINE
8
BLACK
6
CONTINUOUS
10
101.91
20
-83.1771
11
101.764
21
-83.0655
0
LINE
8
BLACK
6
CONTINUOUS
10
101.764
20
-83.0655
11
101.645
21
-82.9253
0
LINE
8
BLACK
6
CONTINUOUS
10
101.645
20
-82.9253
11
101.56
21
-82.7629
0
LINE
8
BLACK
6
CONTINUOUS
10
101.56
20
-82.7629
11
101.511
21
-82.5859
0
LINE
8
BLACK
6
CONTINUOUS
10
101.511
20
-82.5859
11
101.501
21
-82.4026
0
LINE
8
BLACK
6
CONTINUOUS
10
101.501
20
-82.4026
11
101.531
21
-82.2214
0
LINE
8
BLACK
6
CONTINUOUS
10
101.531
20
-82.2214
11
101.599
21
-82.0509
0
LINE
8
BLACK
6
CONTINUOUS
10
101.599
20
-82.0509
11
101.703
21
-81.8991
0
LINE
8
BLACK
6
CONTINUOUS
10
101.703
20
-81.8991
11
101.836
21
-81.773
0
LINE
8
BLACK
6
CONTINUOUS
10
101.836
20
-81.773
11
101.993
21
-81.6784
0
LINE
8
BLACK
6
CONTINUOUS
10
101.993
20
-81.6784
11
102.167
21
-81.6198
0
LINE
8
BLACK
6
CONTINUOUS
10
102.167
20
-81.6198
11
102.35
21
-81.6
0
LINE
8
BLACK
6
CONTINUOUS
10
102.35
20
-81.6
11
102.6
21
-81.6
0
LINE
8
BLACK
6
CONTINUOUS
10
102.6
20
-81.6
11
102.695
21
-81.6053
0
LINE
8
BLACK
6
CONTINUOUS
10
127.35
20
-82.9
11
126.35
21
-82.9
0
LINE
8
BLACK
6
CONTINUOUS
10
126.35
20
-82.9
11
126.35
21
-81.4
0
LINE
8
BLACK
6
CONTINUOUS
10
126.35
20
-81.4
11
127.35
21
-81.4
0
LINE
8
BLACK
6
CONTINUOUS
10
127.35
20
-81.4
11
127.35
21
-82.9
0
LINE
8
BLACK
6
CONTINUOUS
10
128.15
20
-81.405
11
128.23
21
-81.4064
0
LINE
8
BLACK
6
CONTINUOUS
10
128.23
20
-81.4064
11
128.365
21
-81.4487
0
LINE
8
BLACK
6
CONTINUOUS
10
128.365
20
-81.4487
11
128.483
21
-81.5273
0
LINE
8
BLACK
6
CONTINUOUS
10
128.483
20
-81.5273
11
128.574
21
-81.6358
0
LINE
8
BLACK
6
CONTINUOUS
10
128.574
20
-81.6358
11
128.632
21
-81.7655
0
LINE
8
BLACK
6
CONTINUOUS
10
128.632
20
-81.7655
11
128.649
21
-81.9
0
LINE
8
BLACK
6
CONTINUOUS
10
128.649
20
-81.9
11
128.65
21
-81.9
0
LINE
8
BLACK
6
CONTINUOUS
10
128.65
20
-81.9
11
128.65
21
-82.4
0
LINE
8
BLACK
6
CONTINUOUS
10
128.65
20
-82.4
11
128.649
21
-82.4
0
LINE
8
BLACK
6
CONTINUOUS
10
128.649
20
-82.4
11
128.65
21
-82.4061
0
LINE
8
BLACK
6
CONTINUOUS
10
128.65
20
-82.4061
11
128.628
21
-82.5462
0
LINE
8
BLACK
6
CONTINUOUS
10
128.628
20
-82.5462
11
128.568
21
-82.6745
0
LINE
8
BLACK
6
CONTINUOUS
10
128.568
20
-82.6745
11
128.474
21
-82.7808
0
LINE
8
BLACK
6
CONTINUOUS
10
128.474
20
-82.7808
11
128.354
21
-82.8564
0
LINE
8
BLACK
6
CONTINUOUS
10
128.354
20
-82.8564
11
128.218
21
-82.8954
0
LINE
8
BLACK
6
CONTINUOUS
10
128.218
20
-82.8954
11
128.15
21
-82.895
0
LINE
8
BLACK
6
CONTINUOUS
10
128.15
20
-82.895
11
128.15
21
-82.9
0
LINE
8
BLACK
6
CONTINUOUS
10
128.15
20
-82.9
11
127.6
21
-82.9
0
LINE
8
BLACK
6
CONTINUOUS
10
127.6
20
-82.9
11
127.6
21
-81.4
0
LINE
8
BLACK
6
CONTINUOUS
10
127.6
20
-81.4
11
128.15
21
-81.4
0
LINE
8
BLACK
6
CONTINUOUS
10
128.15
20
-81.4
11
128.15
21
-81.405
0
LINE
8
BLACK
6
CONTINUOUS
10
126.1
20
-82.9
11
125.55
21
-82.9
0
LINE
8
BLACK
6
CONTINUOUS
10
125.55
20
-82.9
11
125.55
21
-82.895
0
LINE
8
BLACK
6
CONTINUOUS
10
125.55
20
-82.895
11
125.476
21
-82.8945
0
LINE
8
BLACK
6
CONTINUOUS
10
125.476
20
-82.8945
11
125.34
21
-82.8539
0
LINE
8
BLACK
6
CONTINUOUS
10
125.34
20
-82.8539
11
125.221
21
-82.7768
0
LINE
8
BLACK
6
CONTINUOUS
10
125.221
20
-82.7768
11
125.129
21
-82.6694
0
LINE
8
BLACK
6
CONTINUOUS
10
125.129
20
-82.6694
11
125.07
21
-82.5403
0
LINE
8
BLACK
6
CONTINUOUS
10
125.07
20
-82.5403
11
125.05
21
-82.4
0
LINE
8
BLACK
6
CONTINUOUS
10
125.05
20
-82.4
11
125.05
21
-81.9
0
LINE
8
BLACK
6
CONTINUOUS
10
125.05
20
-81.9
11
125.05
21
-81.8878
0
LINE
8
BLACK
6
CONTINUOUS
10
125.05
20
-81.8878
11
125.074
21
-81.748
0
LINE
8
BLACK
6
CONTINUOUS
10
125.074
20
-81.748
11
125.135
21
-81.6204
0
LINE
8
BLACK
6
CONTINUOUS
10
125.135
20
-81.6204
11
125.231
21
-81.5153
0
LINE
8
BLACK
6
CONTINUOUS
10
125.231
20
-81.5153
11
125.351
21
-81.4411
0
LINE
8
BLACK
6
CONTINUOUS
10
125.351
20
-81.4411
11
125.488
21
-81.4038
0
LINE
8
BLACK
6
CONTINUOUS
10
125.488
20
-81.4038
11
125.55
21
-81.405
0
LINE
8
BLACK
6
CONTINUOUS
10
125.55
20
-81.405
11
125.55
21
-81.4
0
LINE
8
BLACK
6
CONTINUOUS
10
125.55
20
-81.4
11
126.1
21
-81.4
0
LINE
8
BLACK
6
CONTINUOUS
10
126.1
20
-81.4
11
126.1
21
-82.9
0
LINE
8
BLACK
6
CONTINUOUS
10
108.308
20
-79.0917
11
108.44
21
-79.1414
0
LINE
8
BLACK
6
CONTINUOUS
10
108.44
20
-79.1414
11
108.554
21
-79.2264
0
LINE
8
BLACK
6
CONTINUOUS
10
108.554
20
-79.2264
11
108.639
21
-79.3397
0
LINE
8
BLACK
6
CONTINUOUS
10
108.639
20
-79.3397
11
108.688
21
-79.4724
0
LINE
8
BLACK
6
CONTINUOUS
10
108.688
20
-79.4724
11
108.7
21
-79.5797
0
LINE
8
BLACK
6
CONTINUOUS
10
108.7
20
-79.5797
11
108.7
21
-80.4803
0
LINE
8
BLACK
6
CONTINUOUS
10
108.7
20
-80.4803
11
108.688
21
-80.5876
0
LINE
8
BLACK
6
CONTINUOUS
10
108.688
20
-80.5876
11
108.639
21
-80.7203
0
LINE
8
BLACK
6
CONTINUOUS
10
108.639
20
-80.7203
11
108.554
21
-80.8336
0
LINE
8
BLACK
6
CONTINUOUS
10
108.554
20
-80.8336
11
108.44
21
-80.9186
0
LINE
8
BLACK
6
CONTINUOUS
10
108.44
20
-80.9186
11
108.308
21
-80.9683
0
LINE
8
BLACK
6
CONTINUOUS
10
108.308
20
-80.9683
11
108.2
21
-80.98
0
LINE
8
BLACK
6
CONTINUOUS
10
108.2
20
-80.98
11
107.3
21
-80.98
0
LINE
8
BLACK
6
CONTINUOUS
10
107.3
20
-80.98
11
107.192
21
-80.9683
0
LINE
8
BLACK
6
CONTINUOUS
10
107.192
20
-80.9683
11
107.06
21
-80.9186
0
LINE
8
BLACK
6
CONTINUOUS
10
107.06
20
-80.9186
11
106.946
21
-80.8336
0
LINE
8
BLACK
6
CONTINUOUS
10
106.946
20
-80.8336
11
106.861
21
-80.7203
0
LINE
8
BLACK
6
CONTINUOUS
10
106.861
20
-80.7203
11
106.812
21
-80.5876
0
LINE
8
BLACK
6
CONTINUOUS
10
106.812
20
-80.5876
11
106.8
21
-80.4803
0
LINE
8
BLACK
6
CONTINUOUS
10
106.8
20
-80.4803
11
106.8
21
-79.5797
0
LINE
8
BLACK
6
CONTINUOUS
10
106.8
20
-79.5797
11
106.812
21
-79.4724
0
LINE
8
BLACK
6
CONTINUOUS
10
106.812
20
-79.4724
11
106.861
21
-79.3397
0
LINE
8
BLACK
6
CONTINUOUS
10
106.861
20
-79.3397
11
106.946
21
-79.2264
0
LINE
8
BLACK
6
CONTINUOUS
10
106.946
20
-79.2264
11
107.06
21
-79.1414
0
LINE
8
BLACK
6
CONTINUOUS
10
107.06
20
-79.1414
11
107.192
21
-79.0917
0
LINE
8
BLACK
6
CONTINUOUS
10
107.192
20
-79.0917
11
107.3
21
-79.08
0
LINE
8
BLACK
6
CONTINUOUS
10
107.3
20
-79.08
11
108.2
21
-79.08
0
LINE
8
BLACK
6
CONTINUOUS
10
108.2
20
-79.08
11
108.308
21
-79.0917
0
LINE
8
BLACK
6
CONTINUOUS
10
136.808
20
-79.0917
11
136.94
21
-79.1414
0
LINE
8
BLACK
6
CONTINUOUS
10
136.94
20
-79.1414
11
137.054
21
-79.2264
0
LINE
8
BLACK
6
CONTINUOUS
10
137.054
20
-79.2264
11
137.139
21
-79.3397
0
LINE
8
BLACK
6
CONTINUOUS
10
137.139
20
-79.3397
11
137.188
21
-79.4724
0
LINE
8
BLACK
6
CONTINUOUS
10
137.188
20
-79.4724
11
137.2
21
-79.5797
0
LINE
8
BLACK
6
CONTINUOUS
10
137.2
20
-79.5797
11
137.2
21
-80.4803
0
LINE
8
BLACK
6
CONTINUOUS
10
137.2
20
-80.4803
11
137.188
21
-80.5876
0
LINE
8
BLACK
6
CONTINUOUS
10
137.188
20
-80.5876
11
137.139
21
-80.7203
0
LINE
8
BLACK
6
CONTINUOUS
10
137.139
20
-80.7203
11
137.054
21
-80.8336
0
LINE
8
BLACK
6
CONTINUOUS
10
137.054
20
-80.8336
11
136.94
21
-80.9186
0
LINE
8
BLACK
6
CONTINUOUS
10
136.94
20
-80.9186
11
136.808
21
-80.9683
0
LINE
8
BLACK
6
CONTINUOUS
10
136.808
20
-80.9683
11
136.7
21
-80.98
0
LINE
8
BLACK
6
CONTINUOUS
10
136.7
20
-80.98
11
135.8
21
-80.98
0
LINE
8
BLACK
6
CONTINUOUS
10
135.8
20
-80.98
11
135.692
21
-80.9683
0
LINE
8
BLACK
6
CONTINUOUS
10
135.692
20
-80.9683
11
135.56
21
-80.9186
0
LINE
8
BLACK
6
CONTINUOUS
10
135.56
20
-80.9186
11
135.446
21
-80.8336
0
LINE
8
BLACK
6
CONTINUOUS
10
135.446
20
-80.8336
11
135.361
21
-80.7203
0
LINE
8
BLACK
6
CONTINUOUS
10
135.361
20
-80.7203
11
135.312
21
-80.5876
0
LINE
8
BLACK
6
CONTINUOUS
10
135.312
20
-80.5876
11
135.3
21
-80.4803
0
LINE
8
BLACK
6
CONTINUOUS
10
135.3
20
-80.4803
11
135.3
21
-79.5797
0
LINE
8
BLACK
6
CONTINUOUS
10
135.3
20
-79.5797
11
135.312
21
-79.4724
0
LINE
8
BLACK
6
CONTINUOUS
10
135.312
20
-79.4724
11
135.361
21
-79.3397
0
LINE
8
BLACK
6
CONTINUOUS
10
135.361
20
-79.3397
11
135.446
21
-79.2264
0
LINE
8
BLACK
6
CONTINUOUS
10
135.446
20
-79.2264
11
135.56
21
-79.1414
0
LINE
8
BLACK
6
CONTINUOUS
10
135.56
20
-79.1414
11
135.692
21
-79.0917
0
LINE
8
BLACK
6
CONTINUOUS
10
135.692
20
-79.0917
11
135.8
21
-79.08
0
LINE
8
BLACK
6
CONTINUOUS
10
135.8
20
-79.08
11
136.7
21
-79.08
0
LINE
8
BLACK
6
CONTINUOUS
10
136.7
20
-79.08
11
136.808
21
-79.0917
0
LINE
8
BLACK
6
CONTINUOUS
10
121.008
20
-79.0917
11
121.14
21
-79.1414
0
LINE
8
BLACK
6
CONTINUOUS
10
121.14
20
-79.1414
11
121.254
21
-79.2264
0
LINE
8
BLACK
6
CONTINUOUS
10
121.254
20
-79.2264
11
121.339
21
-79.3397
0
LINE
8
BLACK
6
CONTINUOUS
10
121.339
20
-79.3397
11
121.388
21
-79.4724
0
LINE
8
BLACK
6
CONTINUOUS
10
121.388
20
-79.4724
11
121.4
21
-79.5797
0
LINE
8
BLACK
6
CONTINUOUS
10
121.4
20
-79.5797
11
121.4
21
-80.4803
0
LINE
8
BLACK
6
CONTINUOUS
10
121.4
20
-80.4803
11
121.388
21
-80.5876
0
LINE
8
BLACK
6
CONTINUOUS
10
121.388
20
-80.5876
11
121.339
21
-80.7203
0
LINE
8
BLACK
6
CONTINUOUS
10
121.339
20
-80.7203
11
121.254
21
-80.8336
0
LINE
8
BLACK
6
CONTINUOUS
10
121.254
20
-80.8336
11
121.14
21
-80.9186
0
LINE
8
BLACK
6
CONTINUOUS
10
121.14
20
-80.9186
11
121.008
21
-80.9683
0
LINE
8
BLACK
6
CONTINUOUS
10
121.008
20
-80.9683
11
120.9
21
-80.98
0
LINE
8
BLACK
6
CONTINUOUS
10
120.9
20
-80.98
11
120
21
-80.98
0
LINE
8
BLACK
6
CONTINUOUS
10
120
20
-80.98
11
119.892
21
-80.9683
0
LINE
8
BLACK
6
CONTINUOUS
10
119.892
20
-80.9683
11
119.76
21
-80.9186
0
LINE
8
BLACK
6
CONTINUOUS
10
119.76
20
-80.9186
11
119.646
21
-80.8336
0
LINE
8
BLACK
6
CONTINUOUS
10
119.646
20
-80.8336
11
119.561
21
-80.7203
0
LINE
8
BLACK
6
CONTINUOUS
10
119.561
20
-80.7203
11
119.512
21
-80.5876
0
LINE
8
BLACK
6
CONTINUOUS
10
119.512
20
-80.5876
11
119.5
21
-80.4803
0
LINE
8
BLACK
6
CONTINUOUS
10
119.5
20
-80.4803
11
119.5
21
-79.5797
0
LINE
8
BLACK
6
CONTINUOUS
10
119.5
20
-79.5797
11
119.512
21
-79.4724
0
LINE
8
BLACK
6
CONTINUOUS
10
119.512
20
-79.4724
11
119.561
21
-79.3397
0
LINE
8
BLACK
6
CONTINUOUS
10
119.561
20
-79.3397
11
119.646
21
-79.2264
0
LINE
8
BLACK
6
CONTINUOUS
10
119.646
20
-79.2264
11
119.76
21
-79.1414
0
LINE
8
BLACK
6
CONTINUOUS
10
119.76
20
-79.1414
11
119.892
21
-79.0917
0
LINE
8
BLACK
6
CONTINUOUS
10
119.892
20
-79.0917
11
120
21
-79.08
0
LINE
8
BLACK
6
CONTINUOUS
10
120
20
-79.08
11
120.9
21
-79.08
0
LINE
8
BLACK
6
CONTINUOUS
10
120.9
20
-79.08
11
121.008
21
-79.0917
0
LINE
8
BLACK
6
CONTINUOUS
10
124.108
20
-79.0917
11
124.24
21
-79.1414
0
LINE
8
BLACK
6
CONTINUOUS
10
124.24
20
-79.1414
11
124.354
21
-79.2264
0
LINE
8
BLACK
6
CONTINUOUS
10
124.354
20
-79.2264
11
124.439
21
-79.3397
0
LINE
8
BLACK
6
CONTINUOUS
10
124.439
20
-79.3397
11
124.488
21
-79.4724
0
LINE
8
BLACK
6
CONTINUOUS
10
124.488
20
-79.4724
11
124.5
21
-79.5797
0
LINE
8
BLACK
6
CONTINUOUS
10
124.5
20
-79.5797
11
124.5
21
-80.4803
0
LINE
8
BLACK
6
CONTINUOUS
10
124.5
20
-80.4803
11
124.488
21
-80.5876
0
LINE
8
BLACK
6
CONTINUOUS
10
124.488
20
-80.5876
11
124.439
21
-80.7203
0
LINE
8
BLACK
6
CONTINUOUS
10
124.439
20
-80.7203
11
124.354
21
-80.8336
0
LINE
8
BLACK
6
CONTINUOUS
10
124.354
20
-80.8336
11
124.24
21
-80.9186
0
LINE
8
BLACK
6
CONTINUOUS
10
124.24
20
-80.9186
11
124.108
21
-80.9683
0
LINE
8
BLACK
6
CONTINUOUS
10
124.108
20
-80.9683
11
124
21
-80.98
0
LINE
8
BLACK
6
CONTINUOUS
10
124
20
-80.98
11
123.1
21
-80.98
0
LINE
8
BLACK
6
CONTINUOUS
10
123.1
20
-80.98
11
122.992
21
-80.9683
0
LINE
8
BLACK
6
CONTINUOUS
10
122.992
20
-80.9683
11
122.86
21
-80.9186
0
LINE
8
BLACK
6
CONTINUOUS
10
122.86
20
-80.9186
11
122.746
21
-80.8336
0
LINE
8
BLACK
6
CONTINUOUS
10
122.746
20
-80.8336
11
122.661
21
-80.7203
0
LINE
8
BLACK
6
CONTINUOUS
10
122.661
20
-80.7203
11
122.612
21
-80.5876
0
LINE
8
BLACK
6
CONTINUOUS
10
122.612
20
-80.5876
11
122.6
21
-80.4803
0
LINE
8
BLACK
6
CONTINUOUS
10
122.6
20
-80.4803
11
122.6
21
-79.5797
0
LINE
8
BLACK
6
CONTINUOUS
10
122.6
20
-79.5797
11
122.612
21
-79.4724
0
LINE
8
BLACK
6
CONTINUOUS
10
122.612
20
-79.4724
11
122.661
21
-79.3397
0
LINE
8
BLACK
6
CONTINUOUS
10
122.661
20
-79.3397
11
122.746
21
-79.2264
0
LINE
8
BLACK
6
CONTINUOUS
10
122.746
20
-79.2264
11
122.86
21
-79.1414
0
LINE
8
BLACK
6
CONTINUOUS
10
122.86
20
-79.1414
11
122.992
21
-79.0917
0
LINE
8
BLACK
6
CONTINUOUS
10
122.992
20
-79.0917
11
123.1
21
-79.08
0
LINE
8
BLACK
6
CONTINUOUS
10
123.1
20
-79.08
11
124
21
-79.08
0
LINE
8
BLACK
6
CONTINUOUS
10
124
20
-79.08
11
124.108
21
-79.0917
0
LINE
8
BLACK
6
CONTINUOUS
10
115.85
20
-80.85
11
115.3
21
-80.85
0
LINE
8
BLACK
6
CONTINUOUS
10
115.3
20
-80.85
11
115.3
21
-80.845
0
LINE
8
BLACK
6
CONTINUOUS
10
115.3
20
-80.845
11
115.22
21
-80.8436
0
LINE
8
BLACK
6
CONTINUOUS
10
115.22
20
-80.8436
11
115.085
21
-80.8013
0
LINE
8
BLACK
6
CONTINUOUS
10
115.085
20
-80.8013
11
114.967
21
-80.7227
0
LINE
8
BLACK
6
CONTINUOUS
10
114.967
20
-80.7227
11
114.876
21
-80.6142
0
LINE
8
BLACK
6
CONTINUOUS
10
114.876
20
-80.6142
11
114.818
21
-80.4845
0
LINE
8
BLACK
6
CONTINUOUS
10
114.818
20
-80.4845
11
114.801
21
-80.35
0
LINE
8
BLACK
6
CONTINUOUS
10
114.801
20
-80.35
11
114.8
21
-80.35
0
LINE
8
BLACK
6
CONTINUOUS
10
114.8
20
-80.35
11
114.8
21
-79.85
0
LINE
8
BLACK
6
CONTINUOUS
10
114.8
20
-79.85
11
114.801
21
-79.85
0
LINE
8
BLACK
6
CONTINUOUS
10
114.801
20
-79.85
11
114.8
21
-79.8439
0
LINE
8
BLACK
6
CONTINUOUS
10
114.8
20
-79.8439
11
114.822
21
-79.7038
0
LINE
8
BLACK
6
CONTINUOUS
10
114.822
20
-79.7038
11
114.882
21
-79.5755
0
LINE
8
BLACK
6
CONTINUOUS
10
114.882
20
-79.5755
11
114.976
21
-79.4692
0
LINE
8
BLACK
6
CONTINUOUS
10
114.976
20
-79.4692
11
115.096
21
-79.3936
0
LINE
8
BLACK
6
CONTINUOUS
10
115.096
20
-79.3936
11
115.232
21
-79.3546
0
LINE
8
BLACK
6
CONTINUOUS
10
115.232
20
-79.3546
11
115.3
21
-79.355
0
LINE
8
BLACK
6
CONTINUOUS
10
115.3
20
-79.355
11
115.3
21
-79.35
0
LINE
8
BLACK
6
CONTINUOUS
10
115.3
20
-79.35
11
115.85
21
-79.35
0
LINE
8
BLACK
6
CONTINUOUS
10
115.85
20
-79.35
11
115.85
21
-80.85
0
LINE
8
BLACK
6
CONTINUOUS
10
117.1
20
-80.85
11
116.1
21
-80.85
0
LINE
8
BLACK
6
CONTINUOUS
10
116.1
20
-80.85
11
116.1
21
-79.35
0
LINE
8
BLACK
6
CONTINUOUS
10
116.1
20
-79.35
11
117.1
21
-79.35
0
LINE
8
BLACK
6
CONTINUOUS
10
117.1
20
-79.35
11
117.1
21
-80.85
0
LINE
8
BLACK
6
CONTINUOUS
10
117.9
20
-79.355
11
117.974
21
-79.3555
0
LINE
8
BLACK
6
CONTINUOUS
10
117.974
20
-79.3555
11
118.11
21
-79.3961
0
LINE
8
BLACK
6
CONTINUOUS
10
118.11
20
-79.3961
11
118.229
21
-79.4732
0
LINE
8
BLACK
6
CONTINUOUS
10
118.229
20
-79.4732
11
118.321
21
-79.5806
0
LINE
8
BLACK
6
CONTINUOUS
10
118.321
20
-79.5806
11
118.38
21
-79.7097
0
LINE
8
BLACK
6
CONTINUOUS
10
118.38
20
-79.7097
11
118.4
21
-79.85
0
LINE
8
BLACK
6
CONTINUOUS
10
118.4
20
-79.85
11
118.4
21
-80.35
0
LINE
8
BLACK
6
CONTINUOUS
10
118.4
20
-80.35
11
118.4
21
-80.3622
0
LINE
8
BLACK
6
CONTINUOUS
10
118.4
20
-80.3622
11
118.376
21
-80.502
0
LINE
8
BLACK
6
CONTINUOUS
10
118.376
20
-80.502
11
118.315
21
-80.6296
0
LINE
8
BLACK
6
CONTINUOUS
10
118.315
20
-80.6296
11
118.219
21
-80.7347
0
LINE
8
BLACK
6
CONTINUOUS
10
118.219
20
-80.7347
11
118.099
21
-80.8089
0
LINE
8
BLACK
6
CONTINUOUS
10
118.099
20
-80.8089
11
117.962
21
-80.8462
0
LINE
8
BLACK
6
CONTINUOUS
10
117.962
20
-80.8462
11
117.9
21
-80.845
0
LINE
8
BLACK
6
CONTINUOUS
10
117.9
20
-80.845
11
117.9
21
-80.85
0
LINE
8
BLACK
6
CONTINUOUS
10
117.9
20
-80.85
11
117.35
21
-80.85
0
LINE
8
BLACK
6
CONTINUOUS
10
117.35
20
-80.85
11
117.35
21
-79.35
0
LINE
8
BLACK
6
CONTINUOUS
10
117.35
20
-79.35
11
117.9
21
-79.35
0
LINE
8
BLACK
6
CONTINUOUS
10
117.9
20
-79.35
11
117.9
21
-79.355
0
LINE
8
BLACK
6
CONTINUOUS
10
102.695
20
-79.1053
11
102.874
21
-79.1453
0
LINE
8
BLACK
6
CONTINUOUS
10
102.874
20
-79.1453
11
103.04
21
-79.2229
0
LINE
8
BLACK
6
CONTINUOUS
10
103.04
20
-79.2229
11
103.186
21
-79.3345
0
LINE
8
BLACK
6
CONTINUOUS
10
103.186
20
-79.3345
11
103.305
21
-79.4747
0
LINE
8
BLACK
6
CONTINUOUS
10
103.305
20
-79.4747
11
103.39
21
-79.6371
0
LINE
8
BLACK
6
CONTINUOUS
10
103.39
20
-79.6371
11
103.439
21
-79.8141
0
LINE
8
BLACK
6
CONTINUOUS
10
103.439
20
-79.8141
11
103.449
21
-79.9974
0
LINE
8
BLACK
6
CONTINUOUS
10
103.449
20
-79.9974
11
103.419
21
-80.1786
0
LINE
8
BLACK
6
CONTINUOUS
10
103.419
20
-80.1786
11
103.351
21
-80.3491
0
LINE
8
BLACK
6
CONTINUOUS
10
103.351
20
-80.3491
11
103.247
21
-80.5009
0
LINE
8
BLACK
6
CONTINUOUS
10
103.247
20
-80.5009
11
103.114
21
-80.6271
0
LINE
8
BLACK
6
CONTINUOUS
10
103.114
20
-80.6271
11
102.957
21
-80.7216
0
LINE
8
BLACK
6
CONTINUOUS
10
102.957
20
-80.7216
11
102.783
21
-80.7802
0
LINE
8
BLACK
6
CONTINUOUS
10
102.783
20
-80.7802
11
102.6
21
-80.8
0
LINE
8
BLACK
6
CONTINUOUS
10
102.6
20
-80.8
11
102.35
21
-80.8
0
LINE
8
BLACK
6
CONTINUOUS
10
102.35
20
-80.8
11
102.255
21
-80.7947
0
LINE
8
BLACK
6
CONTINUOUS
10
102.255
20
-80.7947
11
102.076
21
-80.7547
0
LINE
8
BLACK
6
CONTINUOUS
10
102.076
20
-80.7547
11
101.91
21
-80.6771
0
LINE
8
BLACK
6
CONTINUOUS
10
101.91
20
-80.6771
11
101.764
21
-80.5655
0
LINE
8
BLACK
6
CONTINUOUS
10
101.764
20
-80.5655
11
101.645
21
-80.4253
0
LINE
8
BLACK
6
CONTINUOUS
10
101.645
20
-80.4253
11
101.56
21
-80.2629
0
LINE
8
BLACK
6
CONTINUOUS
10
101.56
20
-80.2629
11
101.511
21
-80.0859
0
LINE
8
BLACK
6
CONTINUOUS
10
101.511
20
-80.0859
11
101.501
21
-79.9026
0
LINE
8
BLACK
6
CONTINUOUS
10
101.501
20
-79.9026
11
101.531
21
-79.7214
0
LINE
8
BLACK
6
CONTINUOUS
10
101.531
20
-79.7214
11
101.599
21
-79.5509
0
LINE
8
BLACK
6
CONTINUOUS
10
101.599
20
-79.5509
11
101.703
21
-79.3991
0
LINE
8
BLACK
6
CONTINUOUS
10
101.703
20
-79.3991
11
101.836
21
-79.273
0
LINE
8
BLACK
6
CONTINUOUS
10
101.836
20
-79.273
11
101.993
21
-79.1784
0
LINE
8
BLACK
6
CONTINUOUS
10
101.993
20
-79.1784
11
102.167
21
-79.1198
0
LINE
8
BLACK
6
CONTINUOUS
10
102.167
20
-79.1198
11
102.35
21
-79.1
0
LINE
8
BLACK
6
CONTINUOUS
10
102.35
20
-79.1
11
102.6
21
-79.1
0
LINE
8
BLACK
6
CONTINUOUS
10
102.6
20
-79.1
11
102.695
21
-79.1053
0
LINE
8
BLACK
6
CONTINUOUS
10
128.7
20
-78.855
11
128.78
21
-78.8564
0
LINE
8
BLACK
6
CONTINUOUS
10
128.78
20
-78.8564
11
128.915
21
-78.8987
0
LINE
8
BLACK
6
CONTINUOUS
10
128.915
20
-78.8987
11
129.033
21
-78.9773
0
LINE
8
BLACK
6
CONTINUOUS
10
129.033
20
-78.9773
11
129.124
21
-79.0858
0
LINE
8
BLACK
6
CONTINUOUS
10
129.124
20
-79.0858
11
129.182
21
-79.2155
0
LINE
8
BLACK
6
CONTINUOUS
10
129.182
20
-79.2155
11
129.199
21
-79.35
0
LINE
8
BLACK
6
CONTINUOUS
10
129.199
20
-79.35
11
129.2
21
-79.35
0
LINE
8
BLACK
6
CONTINUOUS
10
129.2
20
-79.35
11
129.2
21
-79.85
0
LINE
8
BLACK
6
CONTINUOUS
10
129.2
20
-79.85
11
129.199
21
-79.85
0
LINE
8
BLACK
6
CONTINUOUS
10
129.199
20
-79.85
11
129.2
21
-79.8561
0
LINE
8
BLACK
6
CONTINUOUS
10
129.2
20
-79.8561
11
129.178
21
-79.9962
0
LINE
8
BLACK
6
CONTINUOUS
10
129.178
20
-79.9962
11
129.118
21
-80.1245
0
LINE
8
BLACK
6
CONTINUOUS
10
129.118
20
-80.1245
11
129.024
21
-80.2308
0
LINE
8
BLACK
6
CONTINUOUS
10
129.024
20
-80.2308
11
128.904
21
-80.3064
0
LINE
8
BLACK
6
CONTINUOUS
10
128.904
20
-80.3064
11
128.768
21
-80.3454
0
LINE
8
BLACK
6
CONTINUOUS
10
128.768
20
-80.3454
11
128.7
21
-80.345
0
LINE
8
BLACK
6
CONTINUOUS
10
128.7
20
-80.345
11
128.7
21
-80.35
0
LINE
8
BLACK
6
CONTINUOUS
10
128.7
20
-80.35
11
128.15
21
-80.35
0
LINE
8
BLACK
6
CONTINUOUS
10
128.15
20
-80.35
11
128.15
21
-78.85
0
LINE
8
BLACK
6
CONTINUOUS
10
128.15
20
-78.85
11
128.7
21
-78.85
0
LINE
8
BLACK
6
CONTINUOUS
10
128.7
20
-78.85
11
128.7
21
-78.855
0
LINE
8
BLACK
6
CONTINUOUS
10
126.65
20
-80.35
11
126.1
21
-80.35
0
LINE
8
BLACK
6
CONTINUOUS
10
126.1
20
-80.35
11
126.1
21
-80.345
0
LINE
8
BLACK
6
CONTINUOUS
10
126.1
20
-80.345
11
126.026
21
-80.3445
0
LINE
8
BLACK
6
CONTINUOUS
10
126.026
20
-80.3445
11
125.89
21
-80.3039
0
LINE
8
BLACK
6
CONTINUOUS
10
125.89
20
-80.3039
11
125.771
21
-80.2268
0
LINE
8
BLACK
6
CONTINUOUS
10
125.771
20
-80.2268
11
125.679
21
-80.1194
0
LINE
8
BLACK
6
CONTINUOUS
10
125.679
20
-80.1194
11
125.62
21
-79.9903
0
LINE
8
BLACK
6
CONTINUOUS
10
125.62
20
-79.9903
11
125.6
21
-79.85
0
LINE
8
BLACK
6
CONTINUOUS
10
125.6
20
-79.85
11
125.6
21
-79.35
0
LINE
8
BLACK
6
CONTINUOUS
10
125.6
20
-79.35
11
125.6
21
-79.3378
0
LINE
8
BLACK
6
CONTINUOUS
10
125.6
20
-79.3378
11
125.624
21
-79.198
0
LINE
8
BLACK
6
CONTINUOUS
10
125.624
20
-79.198
11
125.685
21
-79.0704
0
LINE
8
BLACK
6
CONTINUOUS
10
125.685
20
-79.0704
11
125.781
21
-78.9653
0
LINE
8
BLACK
6
CONTINUOUS
10
125.781
20
-78.9653
11
125.901
21
-78.8911
0
LINE
8
BLACK
6
CONTINUOUS
10
125.901
20
-78.8911
11
126.038
21
-78.8538
0
LINE
8
BLACK
6
CONTINUOUS
10
126.038
20
-78.8538
11
126.1
21
-78.855
0
LINE
8
BLACK
6
CONTINUOUS
10
126.1
20
-78.855
11
126.1
21
-78.85
0
LINE
8
BLACK
6
CONTINUOUS
10
126.1
20
-78.85
11
126.65
21
-78.85
0
LINE
8
BLACK
6
CONTINUOUS
10
126.65
20
-78.85
11
126.65
21
-80.35
0
LINE
8
BLACK
6
CONTINUOUS
10
127.9
20
-80.35
11
126.9
21
-80.35
0
LINE
8
BLACK
6
CONTINUOUS
10
126.9
20
-80.35
11
126.9
21
-78.85
0
LINE
8
BLACK
6
CONTINUOUS
10
126.9
20
-78.85
11
127.9
21
-78.85
0
LINE
8
BLACK
6
CONTINUOUS
10
127.9
20
-78.85
11
127.9
21
-80.35
0
LINE
8
BLACK
6
CONTINUOUS
10
142.02
20
-77.344
11
142.188
21
-77.4038
0
LINE
8
BLACK
6
CONTINUOUS
10
142.188
20
-77.4038
11
142.338
21
-77.4994
0
LINE
8
BLACK
6
CONTINUOUS
10
142.338
20
-77.4994
11
142.464
21
-77.6259
0
LINE
8
BLACK
6
CONTINUOUS
10
142.464
20
-77.6259
11
142.558
21
-77.7772
0
LINE
8
BLACK
6
CONTINUOUS
10
142.558
20
-77.7772
11
142.617
21
-77.9456
0
LINE
8
BLACK
6
CONTINUOUS
10
142.617
20
-77.9456
11
142.637
21
-78.1228
0
LINE
8
BLACK
6
CONTINUOUS
10
142.637
20
-78.1228
11
142.637
21
-78.1452
0
LINE
8
BLACK
6
CONTINUOUS
10
142.637
20
-78.1452
11
142.612
21
-78.3218
0
LINE
8
BLACK
6
CONTINUOUS
10
142.612
20
-78.3218
11
142.548
21
-78.4885
0
LINE
8
BLACK
6
CONTINUOUS
10
142.548
20
-78.4885
11
142.45
21
-78.6371
0
LINE
8
BLACK
6
CONTINUOUS
10
142.45
20
-78.6371
11
142.321
21
-78.7601
0
LINE
8
BLACK
6
CONTINUOUS
10
142.321
20
-78.7601
11
142.167
21
-78.8514
0
LINE
8
BLACK
6
CONTINUOUS
10
142.167
20
-78.8514
11
141.998
21
-78.9065
0
LINE
8
BLACK
6
CONTINUOUS
10
141.998
20
-78.9065
11
141.82
21
-78.9227
0
LINE
8
BLACK
6
CONTINUOUS
10
141.82
20
-78.9227
11
141.643
21
-78.8991
0
LINE
8
BLACK
6
CONTINUOUS
10
141.643
20
-78.8991
11
141.476
21
-78.8369
0
LINE
8
BLACK
6
CONTINUOUS
10
141.476
20
-78.8369
11
141.327
21
-78.7393
0
LINE
8
BLACK
6
CONTINUOUS
10
141.327
20
-78.7393
11
141.203
21
-78.611
0
LINE
8
BLACK
6
CONTINUOUS
10
141.203
20
-78.611
11
141.111
21
-78.4584
0
LINE
8
BLACK
6
CONTINUOUS
10
141.111
20
-78.4584
11
141.054
21
-78.2892
0
LINE
8
BLACK
6
CONTINUOUS
10
141.054
20
-78.2892
11
141.037
21
-78.1117
0
LINE
8
BLACK
6
CONTINUOUS
10
141.037
20
-78.1117
11
141.059
21
-77.9347
0
LINE
8
BLACK
6
CONTINUOUS
10
141.059
20
-77.9347
11
141.12
21
-77.7671
0
LINE
8
BLACK
6
CONTINUOUS
10
141.12
20
-77.7671
11
141.217
21
-77.6172
0
LINE
8
BLACK
6
CONTINUOUS
10
141.217
20
-77.6172
11
141.344
21
-77.4924
0
LINE
8
BLACK
6
CONTINUOUS
10
141.344
20
-77.4924
11
141.496
21
-77.399
0
LINE
8
BLACK
6
CONTINUOUS
10
141.496
20
-77.399
11
141.665
21
-77.3415
0
LINE
8
BLACK
6
CONTINUOUS
10
141.665
20
-77.3415
11
141.842
21
-77.3229
0
LINE
8
BLACK
6
CONTINUOUS
10
141.842
20
-77.3229
11
142.02
21
-77.344
0
LINE
8
BLACK
6
CONTINUOUS
10
124.108
20
-76.5517
11
124.24
21
-76.6014
0
LINE
8
BLACK
6
CONTINUOUS
10
124.24
20
-76.6014
11
124.354
21
-76.6864
0
LINE
8
BLACK
6
CONTINUOUS
10
124.354
20
-76.6864
11
124.439
21
-76.7997
0
LINE
8
BLACK
6
CONTINUOUS
10
124.439
20
-76.7997
11
124.488
21
-76.9324
0
LINE
8
BLACK
6
CONTINUOUS
10
124.488
20
-76.9324
11
124.5
21
-77.0397
0
LINE
8
BLACK
6
CONTINUOUS
10
124.5
20
-77.0397
11
124.5
21
-77.9403
0
LINE
8
BLACK
6
CONTINUOUS
10
124.5
20
-77.9403
11
124.488
21
-78.0476
0
LINE
8
BLACK
6
CONTINUOUS
10
124.488
20
-78.0476
11
124.439
21
-78.1803
0
LINE
8
BLACK
6
CONTINUOUS
10
124.439
20
-78.1803
11
124.354
21
-78.2936
0
LINE
8
BLACK
6
CONTINUOUS
10
124.354
20
-78.2936
11
124.24
21
-78.3786
0
LINE
8
BLACK
6
CONTINUOUS
10
124.24
20
-78.3786
11
124.108
21
-78.4283
0
LINE
8
BLACK
6
CONTINUOUS
10
124.108
20
-78.4283
11
124
21
-78.44
0
LINE
8
BLACK
6
CONTINUOUS
10
124
20
-78.44
11
123.1
21
-78.44
0
LINE
8
BLACK
6
CONTINUOUS
10
123.1
20
-78.44
11
122.992
21
-78.4283
0
LINE
8
BLACK
6
CONTINUOUS
10
122.992
20
-78.4283
11
122.86
21
-78.3786
0
LINE
8
BLACK
6
CONTINUOUS
10
122.86
20
-78.3786
11
122.746
21
-78.2936
0
LINE
8
BLACK
6
CONTINUOUS
10
122.746
20
-78.2936
11
122.661
21
-78.1803
0
LINE
8
BLACK
6
CONTINUOUS
10
122.661
20
-78.1803
11
122.612
21
-78.0476
0
LINE
8
BLACK
6
CONTINUOUS
10
122.612
20
-78.0476
11
122.6
21
-77.9403
0
LINE
8
BLACK
6
CONTINUOUS
10
122.6
20
-77.9403
11
122.6
21
-77.0397
0
LINE
8
BLACK
6
CONTINUOUS
10
122.6
20
-77.0397
11
122.612
21
-76.9324
0
LINE
8
BLACK
6
CONTINUOUS
10
122.612
20
-76.9324
11
122.661
21
-76.7997
0
LINE
8
BLACK
6
CONTINUOUS
10
122.661
20
-76.7997
11
122.746
21
-76.6864
0
LINE
8
BLACK
6
CONTINUOUS
10
122.746
20
-76.6864
11
122.86
21
-76.6014
0
LINE
8
BLACK
6
CONTINUOUS
10
122.86
20
-76.6014
11
122.992
21
-76.5517
0
LINE
8
BLACK
6
CONTINUOUS
10
122.992
20
-76.5517
11
123.1
21
-76.54
0
LINE
8
BLACK
6
CONTINUOUS
10
123.1
20
-76.54
11
124
21
-76.54
0
LINE
8
BLACK
6
CONTINUOUS
10
124
20
-76.54
11
124.108
21
-76.5517
0
LINE
8
BLACK
6
CONTINUOUS
10
121.008
20
-76.5517
11
121.14
21
-76.6014
0
LINE
8
BLACK
6
CONTINUOUS
10
121.14
20
-76.6014
11
121.254
21
-76.6864
0
LINE
8
BLACK
6
CONTINUOUS
10
121.254
20
-76.6864
11
121.339
21
-76.7997
0
LINE
8
BLACK
6
CONTINUOUS
10
121.339
20
-76.7997
11
121.388
21
-76.9324
0
LINE
8
BLACK
6
CONTINUOUS
10
121.388
20
-76.9324
11
121.4
21
-77.0397
0
LINE
8
BLACK
6
CONTINUOUS
10
121.4
20
-77.0397
11
121.4
21
-77.9403
0
LINE
8
BLACK
6
CONTINUOUS
10
121.4
20
-77.9403
11
121.388
21
-78.0476
0
LINE
8
BLACK
6
CONTINUOUS
10
121.388
20
-78.0476
11
121.339
21
-78.1803
0
LINE
8
BLACK
6
CONTINUOUS
10
121.339
20
-78.1803
11
121.254
21
-78.2936
0
LINE
8
BLACK
6
CONTINUOUS
10
121.254
20
-78.2936
11
121.14
21
-78.3786
0
LINE
8
BLACK
6
CONTINUOUS
10
121.14
20
-78.3786
11
121.008
21
-78.4283
0
LINE
8
BLACK
6
CONTINUOUS
10
121.008
20
-78.4283
11
120.9
21
-78.44
0
LINE
8
BLACK
6
CONTINUOUS
10
120.9
20
-78.44
11
120
21
-78.44
0
LINE
8
BLACK
6
CONTINUOUS
10
120
20
-78.44
11
119.892
21
-78.4283
0
LINE
8
BLACK
6
CONTINUOUS
10
119.892
20
-78.4283
11
119.76
21
-78.3786
0
LINE
8
BLACK
6
CONTINUOUS
10
119.76
20
-78.3786
11
119.646
21
-78.2936
0
LINE
8
BLACK
6
CONTINUOUS
10
119.646
20
-78.2936
11
119.561
21
-78.1803
0
LINE
8
BLACK
6
CONTINUOUS
10
119.561
20
-78.1803
11
119.512
21
-78.0476
0
LINE
8
BLACK
6
CONTINUOUS
10
119.512
20
-78.0476
11
119.5
21
-77.9403
0
LINE
8
BLACK
6
CONTINUOUS
10
119.5
20
-77.9403
11
119.5
21
-77.0397
0
LINE
8
BLACK
6
CONTINUOUS
10
119.5
20
-77.0397
11
119.512
21
-76.9324
0
LINE
8
BLACK
6
CONTINUOUS
10
119.512
20
-76.9324
11
119.561
21
-76.7997
0
LINE
8
BLACK
6
CONTINUOUS
10
119.561
20
-76.7997
11
119.646
21
-76.6864
0
LINE
8
BLACK
6
CONTINUOUS
10
119.646
20
-76.6864
11
119.76
21
-76.6014
0
LINE
8
BLACK
6
CONTINUOUS
10
119.76
20
-76.6014
11
119.892
21
-76.5517
0
LINE
8
BLACK
6
CONTINUOUS
10
119.892
20
-76.5517
11
120
21
-76.54
0
LINE
8
BLACK
6
CONTINUOUS
10
120
20
-76.54
11
120.9
21
-76.54
0
LINE
8
BLACK
6
CONTINUOUS
10
120.9
20
-76.54
11
121.008
21
-76.5517
0
LINE
8
BLACK
6
CONTINUOUS
10
136.808
20
-76.5517
11
136.94
21
-76.6014
0
LINE
8
BLACK
6
CONTINUOUS
10
136.94
20
-76.6014
11
137.054
21
-76.6864
0
LINE
8
BLACK
6
CONTINUOUS
10
137.054
20
-76.6864
11
137.139
21
-76.7997
0
LINE
8
BLACK
6
CONTINUOUS
10
137.139
20
-76.7997
11
137.188
21
-76.9324
0
LINE
8
BLACK
6
CONTINUOUS
10
137.188
20
-76.9324
11
137.2
21
-77.0397
0
LINE
8
BLACK
6
CONTINUOUS
10
137.2
20
-77.0397
11
137.2
21
-77.9403
0
LINE
8
BLACK
6
CONTINUOUS
10
137.2
20
-77.9403
11
137.188
21
-78.0476
0
LINE
8
BLACK
6
CONTINUOUS
10
137.188
20
-78.0476
11
137.139
21
-78.1803
0
LINE
8
BLACK
6
CONTINUOUS
10
137.139
20
-78.1803
11
137.054
21
-78.2936
0
LINE
8
BLACK
6
CONTINUOUS
10
137.054
20
-78.2936
11
136.94
21
-78.3786
0
LINE
8
BLACK
6
CONTINUOUS
10
136.94
20
-78.3786
11
136.808
21
-78.4283
0
LINE
8
BLACK
6
CONTINUOUS
10
136.808
20
-78.4283
11
136.7
21
-78.44
0
LINE
8
BLACK
6
CONTINUOUS
10
136.7
20
-78.44
11
135.8
21
-78.44
0
LINE
8
BLACK
6
CONTINUOUS
10
135.8
20
-78.44
11
135.692
21
-78.4283
0
LINE
8
BLACK
6
CONTINUOUS
10
135.692
20
-78.4283
11
135.56
21
-78.3786
0
LINE
8
BLACK
6
CONTINUOUS
10
135.56
20
-78.3786
11
135.446
21
-78.2936
0
LINE
8
BLACK
6
CONTINUOUS
10
135.446
20
-78.2936
11
135.361
21
-78.1803
0
LINE
8
BLACK
6
CONTINUOUS
10
135.361
20
-78.1803
11
135.312
21
-78.0476
0
LINE
8
BLACK
6
CONTINUOUS
10
135.312
20
-78.0476
11
135.3
21
-77.9403
0
LINE
8
BLACK
6
CONTINUOUS
10
135.3
20
-77.9403
11
135.3
21
-77.0397
0
LINE
8
BLACK
6
CONTINUOUS
10
135.3
20
-77.0397
11
135.312
21
-76.9324
0
LINE
8
BLACK
6
CONTINUOUS
10
135.312
20
-76.9324
11
135.361
21
-76.7997
0
LINE
8
BLACK
6
CONTINUOUS
10
135.361
20
-76.7997
11
135.446
21
-76.6864
0
LINE
8
BLACK
6
CONTINUOUS
10
135.446
20
-76.6864
11
135.56
21
-76.6014
0
LINE
8
BLACK
6
CONTINUOUS
10
135.56
20
-76.6014
11
135.692
21
-76.5517
0
LINE
8
BLACK
6
CONTINUOUS
10
135.692
20
-76.5517
11
135.8
21
-76.54
0
LINE
8
BLACK
6
CONTINUOUS
10
135.8
20
-76.54
11
136.7
21
-76.54
0
LINE
8
BLACK
6
CONTINUOUS
10
136.7
20
-76.54
11
136.808
21
-76.5517
0
LINE
8
BLACK
6
CONTINUOUS
10
108.308
20
-76.5517
11
108.44
21
-76.6014
0
LINE
8
BLACK
6
CONTINUOUS
10
108.44
20
-76.6014
11
108.554
21
-76.6864
0
LINE
8
BLACK
6
CONTINUOUS
10
108.554
20
-76.6864
11
108.639
21
-76.7997
0
LINE
8
BLACK
6
CONTINUOUS
10
108.639
20
-76.7997
11
108.688
21
-76.9324
0
LINE
8
BLACK
6
CONTINUOUS
10
108.688
20
-76.9324
11
108.7
21
-77.0397
0
LINE
8
BLACK
6
CONTINUOUS
10
108.7
20
-77.0397
11
108.7
21
-77.9403
0
LINE
8
BLACK
6
CONTINUOUS
10
108.7
20
-77.9403
11
108.688
21
-78.0476
0
LINE
8
BLACK
6
CONTINUOUS
10
108.688
20
-78.0476
11
108.639
21
-78.1803
0
LINE
8
BLACK
6
CONTINUOUS
10
108.639
20
-78.1803
11
108.554
21
-78.2936
0
LINE
8
BLACK
6
CONTINUOUS
10
108.554
20
-78.2936
11
108.44
21
-78.3786
0
LINE
8
BLACK
6
CONTINUOUS
10
108.44
20
-78.3786
11
108.308
21
-78.4283
0
LINE
8
BLACK
6
CONTINUOUS
10
108.308
20
-78.4283
11
108.2
21
-78.44
0
LINE
8
BLACK
6
CONTINUOUS
10
108.2
20
-78.44
11
107.3
21
-78.44
0
LINE
8
BLACK
6
CONTINUOUS
10
107.3
20
-78.44
11
107.192
21
-78.4283
0
LINE
8
BLACK
6
CONTINUOUS
10
107.192
20
-78.4283
11
107.06
21
-78.3786
0
LINE
8
BLACK
6
CONTINUOUS
10
107.06
20
-78.3786
11
106.946
21
-78.2936
0
LINE
8
BLACK
6
CONTINUOUS
10
106.946
20
-78.2936
11
106.861
21
-78.1803
0
LINE
8
BLACK
6
CONTINUOUS
10
106.861
20
-78.1803
11
106.812
21
-78.0476
0
LINE
8
BLACK
6
CONTINUOUS
10
106.812
20
-78.0476
11
106.8
21
-77.9403
0
LINE
8
BLACK
6
CONTINUOUS
10
106.8
20
-77.9403
11
106.8
21
-77.0397
0
LINE
8
BLACK
6
CONTINUOUS
10
106.8
20
-77.0397
11
106.812
21
-76.9324
0
LINE
8
BLACK
6
CONTINUOUS
10
106.812
20
-76.9324
11
106.861
21
-76.7997
0
LINE
8
BLACK
6
CONTINUOUS
10
106.861
20
-76.7997
11
106.946
21
-76.6864
0
LINE
8
BLACK
6
CONTINUOUS
10
106.946
20
-76.6864
11
107.06
21
-76.6014
0
LINE
8
BLACK
6
CONTINUOUS
10
107.06
20
-76.6014
11
107.192
21
-76.5517
0
LINE
8
BLACK
6
CONTINUOUS
10
107.192
20
-76.5517
11
107.3
21
-76.54
0
LINE
8
BLACK
6
CONTINUOUS
10
107.3
20
-76.54
11
108.2
21
-76.54
0
LINE
8
BLACK
6
CONTINUOUS
10
108.2
20
-76.54
11
108.308
21
-76.5517
0
LINE
8
BLACK
6
CONTINUOUS
10
102.695
20
-76.6053
11
102.874
21
-76.6453
0
LINE
8
BLACK
6
CONTINUOUS
10
102.874
20
-76.6453
11
103.04
21
-76.7229
0
LINE
8
BLACK
6
CONTINUOUS
10
103.04
20
-76.7229
11
103.186
21
-76.8345
0
LINE
8
BLACK
6
CONTINUOUS
10
103.186
20
-76.8345
11
103.305
21
-76.9747
0
LINE
8
BLACK
6
CONTINUOUS
10
103.305
20
-76.9747
11
103.39
21
-77.1371
0
LINE
8
BLACK
6
CONTINUOUS
10
103.39
20
-77.1371
11
103.439
21
-77.3141
0
LINE
8
BLACK
6
CONTINUOUS
10
103.439
20
-77.3141
11
103.449
21
-77.4974
0
LINE
8
BLACK
6
CONTINUOUS
10
103.449
20
-77.4974
11
103.419
21
-77.6786
0
LINE
8
BLACK
6
CONTINUOUS
10
103.419
20
-77.6786
11
103.351
21
-77.8491
0
LINE
8
BLACK
6
CONTINUOUS
10
103.351
20
-77.8491
11
103.247
21
-78.0009
0
LINE
8
BLACK
6
CONTINUOUS
10
103.247
20
-78.0009
11
103.114
21
-78.1271
0
LINE
8
BLACK
6
CONTINUOUS
10
103.114
20
-78.1271
11
102.957
21
-78.2216
0
LINE
8
BLACK
6
CONTINUOUS
10
102.957
20
-78.2216
11
102.783
21
-78.2802
0
LINE
8
BLACK
6
CONTINUOUS
10
102.783
20
-78.2802
11
102.6
21
-78.3
0
LINE
8
BLACK
6
CONTINUOUS
10
102.6
20
-78.3
11
102.35
21
-78.3
0
LINE
8
BLACK
6
CONTINUOUS
10
102.35
20
-78.3
11
102.255
21
-78.2947
0
LINE
8
BLACK
6
CONTINUOUS
10
102.255
20
-78.2947
11
102.076
21
-78.2547
0
LINE
8
BLACK
6
CONTINUOUS
10
102.076
20
-78.2547
11
101.91
21
-78.1771
0
LINE
8
BLACK
6
CONTINUOUS
10
101.91
20
-78.1771
11
101.764
21
-78.0655
0
LINE
8
BLACK
6
CONTINUOUS
10
101.764
20
-78.0655
11
101.645
21
-77.9253
0
LINE
8
BLACK
6
CONTINUOUS
10
101.645
20
-77.9253
11
101.56
21
-77.7629
0
LINE
8
BLACK
6
CONTINUOUS
10
101.56
20
-77.7629
11
101.511
21
-77.5859
0
LINE
8
BLACK
6
CONTINUOUS
10
101.511
20
-77.5859
11
101.501
21
-77.4026
0
LINE
8
BLACK
6
CONTINUOUS
10
101.501
20
-77.4026
11
101.531
21
-77.2214
0
LINE
8
BLACK
6
CONTINUOUS
10
101.531
20
-77.2214
11
101.599
21
-77.0509
0
LINE
8
BLACK
6
CONTINUOUS
10
101.599
20
-77.0509
11
101.703
21
-76.8991
0
LINE
8
BLACK
6
CONTINUOUS
10
101.703
20
-76.8991
11
101.836
21
-76.773
0
LINE
8
BLACK
6
CONTINUOUS
10
101.836
20
-76.773
11
101.993
21
-76.6784
0
LINE
8
BLACK
6
CONTINUOUS
10
101.993
20
-76.6784
11
102.167
21
-76.6198
0
LINE
8
BLACK
6
CONTINUOUS
10
102.167
20
-76.6198
11
102.35
21
-76.6
0
LINE
8
BLACK
6
CONTINUOUS
10
102.35
20
-76.6
11
102.6
21
-76.6
0
LINE
8
BLACK
6
CONTINUOUS
10
102.6
20
-76.6
11
102.695
21
-76.6053
0
LINE
8
BLACK
6
CONTINUOUS
10
116.02
20
-76.3586
11
116.188
21
-76.4184
0
LINE
8
BLACK
6
CONTINUOUS
10
116.188
20
-76.4184
11
116.339
21
-76.514
0
LINE
8
BLACK
6
CONTINUOUS
10
116.339
20
-76.514
11
116.464
21
-76.6405
0
LINE
8
BLACK
6
CONTINUOUS
10
116.464
20
-76.6405
11
116.559
21
-76.7918
0
LINE
8
BLACK
6
CONTINUOUS
10
116.559
20
-76.7918
11
116.618
21
-76.9602
0
LINE
8
BLACK
6
CONTINUOUS
10
116.618
20
-76.9602
11
116.637
21
-77.1374
0
LINE
8
BLACK
6
CONTINUOUS
10
116.637
20
-77.1374
11
116.637
21
-77.1598
0
LINE
8
BLACK
6
CONTINUOUS
10
116.637
20
-77.1598
11
116.612
21
-77.3364
0
LINE
8
BLACK
6
CONTINUOUS
10
116.612
20
-77.3364
11
116.549
21
-77.5031
0
LINE
8
BLACK
6
CONTINUOUS
10
116.549
20
-77.5031
11
116.45
21
-77.6517
0
LINE
8
BLACK
6
CONTINUOUS
10
116.45
20
-77.6517
11
116.321
21
-77.7747
0
LINE
8
BLACK
6
CONTINUOUS
10
116.321
20
-77.7747
11
116.168
21
-77.866
0
LINE
8
BLACK
6
CONTINUOUS
10
116.168
20
-77.866
11
115.998
21
-77.9211
0
LINE
8
BLACK
6
CONTINUOUS
10
115.998
20
-77.9211
11
115.821
21
-77.9373
0
LINE
8
BLACK
6
CONTINUOUS
10
115.821
20
-77.9373
11
115.644
21
-77.9137
0
LINE
8
BLACK
6
CONTINUOUS
10
115.644
20
-77.9137
11
115.477
21
-77.8515
0
LINE
8
BLACK
6
CONTINUOUS
10
115.477
20
-77.8515
11
115.327
21
-77.7538
0
LINE
8
BLACK
6
CONTINUOUS
10
115.327
20
-77.7538
11
115.204
21
-77.6256
0
LINE
8
BLACK
6
CONTINUOUS
10
115.204
20
-77.6256
11
115.111
21
-77.473
0
LINE
8
BLACK
6
CONTINUOUS
10
115.111
20
-77.473
11
115.055
21
-77.3038
0
LINE
8
BLACK
6
CONTINUOUS
10
115.055
20
-77.3038
11
115.038
21
-77.1263
0
LINE
8
BLACK
6
CONTINUOUS
10
115.038
20
-77.1263
11
115.06
21
-76.9493
0
LINE
8
BLACK
6
CONTINUOUS
10
115.06
20
-76.9493
11
115.121
21
-76.7817
0
LINE
8
BLACK
6
CONTINUOUS
10
115.121
20
-76.7817
11
115.217
21
-76.6318
0
LINE
8
BLACK
6
CONTINUOUS
10
115.217
20
-76.6318
11
115.345
21
-76.507
0
LINE
8
BLACK
6
CONTINUOUS
10
115.345
20
-76.507
11
115.497
21
-76.4136
0
LINE
8
BLACK
6
CONTINUOUS
10
115.497
20
-76.4136
11
115.666
21
-76.3561
0
LINE
8
BLACK
6
CONTINUOUS
10
115.666
20
-76.3561
11
115.843
21
-76.3375
0
LINE
8
BLACK
6
CONTINUOUS
10
115.843
20
-76.3375
11
116.02
21
-76.3586
0
LINE
8
BLACK
6
CONTINUOUS
10
128.7
20
-76.355
11
128.78
21
-76.3564
0
LINE
8
BLACK
6
CONTINUOUS
10
128.78
20
-76.3564
11
128.915
21
-76.3987
0
LINE
8
BLACK
6
CONTINUOUS
10
128.915
20
-76.3987
11
129.033
21
-76.4773
0
LINE
8
BLACK
6
CONTINUOUS
10
129.033
20
-76.4773
11
129.124
21
-76.5858
0
LINE
8
BLACK
6
CONTINUOUS
10
129.124
20
-76.5858
11
129.182
21
-76.7155
0
LINE
8
BLACK
6
CONTINUOUS
10
129.182
20
-76.7155
11
129.199
21
-76.85
0
LINE
8
BLACK
6
CONTINUOUS
10
129.199
20
-76.85
11
129.2
21
-76.85
0
LINE
8
BLACK
6
CONTINUOUS
10
129.2
20
-76.85
11
129.2
21
-77.35
0
LINE
8
BLACK
6
CONTINUOUS
10
129.2
20
-77.35
11
129.199
21
-77.35
0
LINE
8
BLACK
6
CONTINUOUS
10
129.199
20
-77.35
11
129.2
21
-77.3561
0
LINE
8
BLACK
6
CONTINUOUS
10
129.2
20
-77.3561
11
129.178
21
-77.4962
0
LINE
8
BLACK
6
CONTINUOUS
10
129.178
20
-77.4962
11
129.118
21
-77.6245
0
LINE
8
BLACK
6
CONTINUOUS
10
129.118
20
-77.6245
11
129.024
21
-77.7308
0
LINE
8
BLACK
6
CONTINUOUS
10
129.024
20
-77.7308
11
128.904
21
-77.8064
0
LINE
8
BLACK
6
CONTINUOUS
10
128.904
20
-77.8064
11
128.768
21
-77.8454
0
LINE
8
BLACK
6
CONTINUOUS
10
128.768
20
-77.8454
11
128.7
21
-77.845
0
LINE
8
BLACK
6
CONTINUOUS
10
128.7
20
-77.845
11
128.7
21
-77.85
0
LINE
8
BLACK
6
CONTINUOUS
10
128.7
20
-77.85
11
128.15
21
-77.85
0
LINE
8
BLACK
6
CONTINUOUS
10
128.15
20
-77.85
11
128.15
21
-76.35
0
LINE
8
BLACK
6
CONTINUOUS
10
128.15
20
-76.35
11
128.7
21
-76.35
0
LINE
8
BLACK
6
CONTINUOUS
10
128.7
20
-76.35
11
128.7
21
-76.355
0
LINE
8
BLACK
6
CONTINUOUS
10
127.9
20
-77.85
11
126.9
21
-77.85
0
LINE
8
BLACK
6
CONTINUOUS
10
126.9
20
-77.85
11
126.9
21
-76.35
0
LINE
8
BLACK
6
CONTINUOUS
10
126.9
20
-76.35
11
127.9
21
-76.35
0
LINE
8
BLACK
6
CONTINUOUS
10
127.9
20
-76.35
11
127.9
21
-77.85
0
LINE
8
BLACK
6
CONTINUOUS
10
126.65
20
-77.85
11
126.1
21
-77.85
0
LINE
8
BLACK
6
CONTINUOUS
10
126.1
20
-77.85
11
126.1
21
-77.845
0
LINE
8
BLACK
6
CONTINUOUS
10
126.1
20
-77.845
11
126.026
21
-77.8445
0
LINE
8
BLACK
6
CONTINUOUS
10
126.026
20
-77.8445
11
125.89
21
-77.8039
0
LINE
8
BLACK
6
CONTINUOUS
10
125.89
20
-77.8039
11
125.771
21
-77.7268
0
LINE
8
BLACK
6
CONTINUOUS
10
125.771
20
-77.7268
11
125.679
21
-77.6194
0
LINE
8
BLACK
6
CONTINUOUS
10
125.679
20
-77.6194
11
125.62
21
-77.4903
0
LINE
8
BLACK
6
CONTINUOUS
10
125.62
20
-77.4903
11
125.6
21
-77.35
0
LINE
8
BLACK
6
CONTINUOUS
10
125.6
20
-77.35
11
125.6
21
-76.85
0
LINE
8
BLACK
6
CONTINUOUS
10
125.6
20
-76.85
11
125.6
21
-76.8378
0
LINE
8
BLACK
6
CONTINUOUS
10
125.6
20
-76.8378
11
125.624
21
-76.698
0
LINE
8
BLACK
6
CONTINUOUS
10
125.624
20
-76.698
11
125.685
21
-76.5704
0
LINE
8
BLACK
6
CONTINUOUS
10
125.685
20
-76.5704
11
125.781
21
-76.4653
0
LINE
8
BLACK
6
CONTINUOUS
10
125.781
20
-76.4653
11
125.901
21
-76.3911
0
LINE
8
BLACK
6
CONTINUOUS
10
125.901
20
-76.3911
11
126.038
21
-76.3538
0
LINE
8
BLACK
6
CONTINUOUS
10
126.038
20
-76.3538
11
126.1
21
-76.355
0
LINE
8
BLACK
6
CONTINUOUS
10
126.1
20
-76.355
11
126.1
21
-76.35
0
LINE
8
BLACK
6
CONTINUOUS
10
126.1
20
-76.35
11
126.65
21
-76.35
0
LINE
8
BLACK
6
CONTINUOUS
10
126.65
20
-76.35
11
126.65
21
-77.85
0
LINE
8
BLACK
6
CONTINUOUS
10
141.554
20
-76.7086
11
140.423
21
-77.84
0
LINE
8
BLACK
6
CONTINUOUS
10
140.423
20
-77.84
11
139.291
21
-76.7086
0
LINE
8
BLACK
6
CONTINUOUS
10
139.291
20
-76.7086
11
140.423
21
-75.5773
0
LINE
8
BLACK
6
CONTINUOUS
10
140.423
20
-75.5773
11
141.554
21
-76.7086
0
LINE
8
BLACK
6
CONTINUOUS
10
108.308
20
-74.0117
11
108.44
21
-74.0614
0
LINE
8
BLACK
6
CONTINUOUS
10
108.44
20
-74.0614
11
108.554
21
-74.1464
0
LINE
8
BLACK
6
CONTINUOUS
10
108.554
20
-74.1464
11
108.639
21
-74.2597
0
LINE
8
BLACK
6
CONTINUOUS
10
108.639
20
-74.2597
11
108.688
21
-74.3924
0
LINE
8
BLACK
6
CONTINUOUS
10
108.688
20
-74.3924
11
108.7
21
-74.4997
0
LINE
8
BLACK
6
CONTINUOUS
10
108.7
20
-74.4997
11
108.7
21
-75.4003
0
LINE
8
BLACK
6
CONTINUOUS
10
108.7
20
-75.4003
11
108.688
21
-75.5076
0
LINE
8
BLACK
6
CONTINUOUS
10
108.688
20
-75.5076
11
108.639
21
-75.6403
0
LINE
8
BLACK
6
CONTINUOUS
10
108.639
20
-75.6403
11
108.554
21
-75.7536
0
LINE
8
BLACK
6
CONTINUOUS
10
108.554
20
-75.7536
11
108.44
21
-75.8386
0
LINE
8
BLACK
6
CONTINUOUS
10
108.44
20
-75.8386
11
108.308
21
-75.8883
0
LINE
8
BLACK
6
CONTINUOUS
10
108.308
20
-75.8883
11
108.2
21
-75.9
0
LINE
8
BLACK
6
CONTINUOUS
10
108.2
20
-75.9
11
107.3
21
-75.9
0
LINE
8
BLACK
6
CONTINUOUS
10
107.3
20
-75.9
11
107.192
21
-75.8883
0
LINE
8
BLACK
6
CONTINUOUS
10
107.192
20
-75.8883
11
107.06
21
-75.8386
0
LINE
8
BLACK
6
CONTINUOUS
10
107.06
20
-75.8386
11
106.946
21
-75.7536
0
LINE
8
BLACK
6
CONTINUOUS
10
106.946
20
-75.7536
11
106.861
21
-75.6403
0
LINE
8
BLACK
6
CONTINUOUS
10
106.861
20
-75.6403
11
106.812
21
-75.5076
0
LINE
8
BLACK
6
CONTINUOUS
10
106.812
20
-75.5076
11
106.8
21
-75.4003
0
LINE
8
BLACK
6
CONTINUOUS
10
106.8
20
-75.4003
11
106.8
21
-74.4997
0
LINE
8
BLACK
6
CONTINUOUS
10
106.8
20
-74.4997
11
106.812
21
-74.3924
0
LINE
8
BLACK
6
CONTINUOUS
10
106.812
20
-74.3924
11
106.861
21
-74.2597
0
LINE
8
BLACK
6
CONTINUOUS
10
106.861
20
-74.2597
11
106.946
21
-74.1464
0
LINE
8
BLACK
6
CONTINUOUS
10
106.946
20
-74.1464
11
107.06
21
-74.0614
0
LINE
8
BLACK
6
CONTINUOUS
10
107.06
20
-74.0614
11
107.192
21
-74.0117
0
LINE
8
BLACK
6
CONTINUOUS
10
107.192
20
-74.0117
11
107.3
21
-74
0
LINE
8
BLACK
6
CONTINUOUS
10
107.3
20
-74
11
108.2
21
-74
0
LINE
8
BLACK
6
CONTINUOUS
10
108.2
20
-74
11
108.308
21
-74.0117
0
LINE
8
BLACK
6
CONTINUOUS
10
136.808
20
-74.0117
11
136.94
21
-74.0614
0
LINE
8
BLACK
6
CONTINUOUS
10
136.94
20
-74.0614
11
137.054
21
-74.1464
0
LINE
8
BLACK
6
CONTINUOUS
10
137.054
20
-74.1464
11
137.139
21
-74.2597
0
LINE
8
BLACK
6
CONTINUOUS
10
137.139
20
-74.2597
11
137.188
21
-74.3924
0
LINE
8
BLACK
6
CONTINUOUS
10
137.188
20
-74.3924
11
137.2
21
-74.4997
0
LINE
8
BLACK
6
CONTINUOUS
10
137.2
20
-74.4997
11
137.2
21
-75.4003
0
LINE
8
BLACK
6
CONTINUOUS
10
137.2
20
-75.4003
11
137.188
21
-75.5076
0
LINE
8
BLACK
6
CONTINUOUS
10
137.188
20
-75.5076
11
137.139
21
-75.6403
0
LINE
8
BLACK
6
CONTINUOUS
10
137.139
20
-75.6403
11
137.054
21
-75.7536
0
LINE
8
BLACK
6
CONTINUOUS
10
137.054
20
-75.7536
11
136.94
21
-75.8386
0
LINE
8
BLACK
6
CONTINUOUS
10
136.94
20
-75.8386
11
136.808
21
-75.8883
0
LINE
8
BLACK
6
CONTINUOUS
10
136.808
20
-75.8883
11
136.7
21
-75.9
0
LINE
8
BLACK
6
CONTINUOUS
10
136.7
20
-75.9
11
135.8
21
-75.9
0
LINE
8
BLACK
6
CONTINUOUS
10
135.8
20
-75.9
11
135.692
21
-75.8883
0
LINE
8
BLACK
6
CONTINUOUS
10
135.692
20
-75.8883
11
135.56
21
-75.8386
0
LINE
8
BLACK
6
CONTINUOUS
10
135.56
20
-75.8386
11
135.446
21
-75.7536
0
LINE
8
BLACK
6
CONTINUOUS
10
135.446
20
-75.7536
11
135.361
21
-75.6403
0
LINE
8
BLACK
6
CONTINUOUS
10
135.361
20
-75.6403
11
135.312
21
-75.5076
0
LINE
8
BLACK
6
CONTINUOUS
10
135.312
20
-75.5076
11
135.3
21
-75.4003
0
LINE
8
BLACK
6
CONTINUOUS
10
135.3
20
-75.4003
11
135.3
21
-74.4997
0
LINE
8
BLACK
6
CONTINUOUS
10
135.3
20
-74.4997
11
135.312
21
-74.3924
0
LINE
8
BLACK
6
CONTINUOUS
10
135.312
20
-74.3924
11
135.361
21
-74.2597
0
LINE
8
BLACK
6
CONTINUOUS
10
135.361
20
-74.2597
11
135.446
21
-74.1464
0
LINE
8
BLACK
6
CONTINUOUS
10
135.446
20
-74.1464
11
135.56
21
-74.0614
0
LINE
8
BLACK
6
CONTINUOUS
10
135.56
20
-74.0614
11
135.692
21
-74.0117
0
LINE
8
BLACK
6
CONTINUOUS
10
135.692
20
-74.0117
11
135.8
21
-74
0
LINE
8
BLACK
6
CONTINUOUS
10
135.8
20
-74
11
136.7
21
-74
0
LINE
8
BLACK
6
CONTINUOUS
10
136.7
20
-74
11
136.808
21
-74.0117
0
LINE
8
BLACK
6
CONTINUOUS
10
121.008
20
-74.0117
11
121.14
21
-74.0614
0
LINE
8
BLACK
6
CONTINUOUS
10
121.14
20
-74.0614
11
121.254
21
-74.1464
0
LINE
8
BLACK
6
CONTINUOUS
10
121.254
20
-74.1464
11
121.339
21
-74.2597
0
LINE
8
BLACK
6
CONTINUOUS
10
121.339
20
-74.2597
11
121.388
21
-74.3924
0
LINE
8
BLACK
6
CONTINUOUS
10
121.388
20
-74.3924
11
121.4
21
-74.4997
0
LINE
8
BLACK
6
CONTINUOUS
10
121.4
20
-74.4997
11
121.4
21
-75.4003
0
LINE
8
BLACK
6
CONTINUOUS
10
121.4
20
-75.4003
11
121.388
21
-75.5076
0
LINE
8
BLACK
6
CONTINUOUS
10
121.388
20
-75.5076
11
121.339
21
-75.6403
0
LINE
8
BLACK
6
CONTINUOUS
10
121.339
20
-75.6403
11
121.254
21
-75.7536
0
LINE
8
BLACK
6
CONTINUOUS
10
121.254
20
-75.7536
11
121.14
21
-75.8386
0
LINE
8
BLACK
6
CONTINUOUS
10
121.14
20
-75.8386
11
121.008
21
-75.8883
0
LINE
8
BLACK
6
CONTINUOUS
10
121.008
20
-75.8883
11
120.9
21
-75.9
0
LINE
8
BLACK
6
CONTINUOUS
10
120.9
20
-75.9
11
120
21
-75.9
0
LINE
8
BLACK
6
CONTINUOUS
10
120
20
-75.9
11
119.892
21
-75.8883
0
LINE
8
BLACK
6
CONTINUOUS
10
119.892
20
-75.8883
11
119.76
21
-75.8386
0
LINE
8
BLACK
6
CONTINUOUS
10
119.76
20
-75.8386
11
119.646
21
-75.7536
0
LINE
8
BLACK
6
CONTINUOUS
10
119.646
20
-75.7536
11
119.561
21
-75.6403
0
LINE
8
BLACK
6
CONTINUOUS
10
119.561
20
-75.6403
11
119.512
21
-75.5076
0
LINE
8
BLACK
6
CONTINUOUS
10
119.512
20
-75.5076
11
119.5
21
-75.4003
0
LINE
8
BLACK
6
CONTINUOUS
10
119.5
20
-75.4003
11
119.5
21
-74.4997
0
LINE
8
BLACK
6
CONTINUOUS
10
119.5
20
-74.4997
11
119.512
21
-74.3924
0
LINE
8
BLACK
6
CONTINUOUS
10
119.512
20
-74.3924
11
119.561
21
-74.2597
0
LINE
8
BLACK
6
CONTINUOUS
10
119.561
20
-74.2597
11
119.646
21
-74.1464
0
LINE
8
BLACK
6
CONTINUOUS
10
119.646
20
-74.1464
11
119.76
21
-74.0614
0
LINE
8
BLACK
6
CONTINUOUS
10
119.76
20
-74.0614
11
119.892
21
-74.0117
0
LINE
8
BLACK
6
CONTINUOUS
10
119.892
20
-74.0117
11
120
21
-74
0
LINE
8
BLACK
6
CONTINUOUS
10
120
20
-74
11
120.9
21
-74
0
LINE
8
BLACK
6
CONTINUOUS
10
120.9
20
-74
11
121.008
21
-74.0117
0
LINE
8
BLACK
6
CONTINUOUS
10
124.108
20
-74.0117
11
124.24
21
-74.0614
0
LINE
8
BLACK
6
CONTINUOUS
10
124.24
20
-74.0614
11
124.354
21
-74.1464
0
LINE
8
BLACK
6
CONTINUOUS
10
124.354
20
-74.1464
11
124.439
21
-74.2597
0
LINE
8
BLACK
6
CONTINUOUS
10
124.439
20
-74.2597
11
124.488
21
-74.3924
0
LINE
8
BLACK
6
CONTINUOUS
10
124.488
20
-74.3924
11
124.5
21
-74.4997
0
LINE
8
BLACK
6
CONTINUOUS
10
124.5
20
-74.4997
11
124.5
21
-75.4003
0
LINE
8
BLACK
6
CONTINUOUS
10
124.5
20
-75.4003
11
124.488
21
-75.5076
0
LINE
8
BLACK
6
CONTINUOUS
10
124.488
20
-75.5076
11
124.439
21
-75.6403
0
LINE
8
BLACK
6
CONTINUOUS
10
124.439
20
-75.6403
11
124.354
21
-75.7536
0
LINE
8
BLACK
6
CONTINUOUS
10
124.354
20
-75.7536
11
124.24
21
-75.8386
0
LINE
8
BLACK
6
CONTINUOUS
10
124.24
20
-75.8386
11
124.108
21
-75.8883
0
LINE
8
BLACK
6
CONTINUOUS
10
124.108
20
-75.8883
11
124
21
-75.9
0
LINE
8
BLACK
6
CONTINUOUS
10
124
20
-75.9
11
123.1
21
-75.9
0
LINE
8
BLACK
6
CONTINUOUS
10
123.1
20
-75.9
11
122.992
21
-75.8883
0
LINE
8
BLACK
6
CONTINUOUS
10
122.992
20
-75.8883
11
122.86
21
-75.8386
0
LINE
8
BLACK
6
CONTINUOUS
10
122.86
20
-75.8386
11
122.746
21
-75.7536
0
LINE
8
BLACK
6
CONTINUOUS
10
122.746
20
-75.7536
11
122.661
21
-75.6403
0
LINE
8
BLACK
6
CONTINUOUS
10
122.661
20
-75.6403
11
122.612
21
-75.5076
0
LINE
8
BLACK
6
CONTINUOUS
10
122.612
20
-75.5076
11
122.6
21
-75.4003
0
LINE
8
BLACK
6
CONTINUOUS
10
122.6
20
-75.4003
11
122.6
21
-74.4997
0
LINE
8
BLACK
6
CONTINUOUS
10
122.6
20
-74.4997
11
122.612
21
-74.3924
0
LINE
8
BLACK
6
CONTINUOUS
10
122.612
20
-74.3924
11
122.661
21
-74.2597
0
LINE
8
BLACK
6
CONTINUOUS
10
122.661
20
-74.2597
11
122.746
21
-74.1464
0
LINE
8
BLACK
6
CONTINUOUS
10
122.746
20
-74.1464
11
122.86
21
-74.0614
0
LINE
8
BLACK
6
CONTINUOUS
10
122.86
20
-74.0614
11
122.992
21
-74.0117
0
LINE
8
BLACK
6
CONTINUOUS
10
122.992
20
-74.0117
11
123.1
21
-74
0
LINE
8
BLACK
6
CONTINUOUS
10
123.1
20
-74
11
124
21
-74
0
LINE
8
BLACK
6
CONTINUOUS
10
124
20
-74
11
124.108
21
-74.0117
0
LINE
8
BLACK
6
CONTINUOUS
10
113.527
20
-73.7119
11
113.596
21
-73.7643
0
LINE
8
BLACK
6
CONTINUOUS
10
113.596
20
-73.7643
11
114.261
21
-74.4295
0
LINE
8
BLACK
6
CONTINUOUS
10
114.261
20
-74.4295
11
114.313
21
-74.4978
0
LINE
8
BLACK
6
CONTINUOUS
10
114.313
20
-74.4978
11
114.352
21
-74.6053
0
LINE
8
BLACK
6
CONTINUOUS
10
114.352
20
-74.6053
11
114.352
21
-74.7198
0
LINE
8
BLACK
6
CONTINUOUS
10
114.352
20
-74.7198
11
114.313
21
-74.8274
0
LINE
8
BLACK
6
CONTINUOUS
10
114.313
20
-74.8274
11
114.261
21
-74.8956
0
LINE
8
BLACK
6
CONTINUOUS
10
114.261
20
-74.8956
11
113.596
21
-75.5609
0
LINE
8
BLACK
6
CONTINUOUS
10
113.596
20
-75.5609
11
113.527
21
-75.6133
0
LINE
8
BLACK
6
CONTINUOUS
10
113.527
20
-75.6133
11
113.42
21
-75.6524
0
LINE
8
BLACK
6
CONTINUOUS
10
113.42
20
-75.6524
11
113.305
21
-75.6524
0
LINE
8
BLACK
6
CONTINUOUS
10
113.305
20
-75.6524
11
113.198
21
-75.6133
0
LINE
8
BLACK
6
CONTINUOUS
10
113.198
20
-75.6133
11
113.13
21
-75.5609
0
LINE
8
BLACK
6
CONTINUOUS
10
113.13
20
-75.5609
11
112.464
21
-74.8956
0
LINE
8
BLACK
6
CONTINUOUS
10
112.464
20
-74.8956
11
112.412
21
-74.8274
0
LINE
8
BLACK
6
CONTINUOUS
10
112.412
20
-74.8274
11
112.373
21
-74.7198
0
LINE
8
BLACK
6
CONTINUOUS
10
112.373
20
-74.7198
11
112.373
21
-74.6053
0
LINE
8
BLACK
6
CONTINUOUS
10
112.373
20
-74.6053
11
112.412
21
-74.4978
0
LINE
8
BLACK
6
CONTINUOUS
10
112.412
20
-74.4978
11
112.464
21
-74.4295
0
LINE
8
BLACK
6
CONTINUOUS
10
112.464
20
-74.4295
11
113.13
21
-73.7643
0
LINE
8
BLACK
6
CONTINUOUS
10
113.13
20
-73.7643
11
113.198
21
-73.7119
0
LINE
8
BLACK
6
CONTINUOUS
10
113.198
20
-73.7119
11
113.305
21
-73.6727
0
LINE
8
BLACK
6
CONTINUOUS
10
113.305
20
-73.6727
11
113.42
21
-73.6727
0
LINE
8
BLACK
6
CONTINUOUS
10
113.42
20
-73.6727
11
113.527
21
-73.7119
0
LINE
8
BLACK
6
CONTINUOUS
10
127.865
20
-73.5125
11
128.01
21
-73.5724
0
LINE
8
BLACK
6
CONTINUOUS
10
128.01
20
-73.5724
11
128.134
21
-73.6679
0
LINE
8
BLACK
6
CONTINUOUS
10
128.134
20
-73.6679
11
128.23
21
-73.7922
0
LINE
8
BLACK
6
CONTINUOUS
10
128.23
20
-73.7922
11
128.29
21
-73.937
0
LINE
8
BLACK
6
CONTINUOUS
10
128.29
20
-73.937
11
128.31
21
-74.0924
0
LINE
8
BLACK
6
CONTINUOUS
10
128.31
20
-74.0924
11
128.31
21
-74.7916
0
LINE
8
BLACK
6
CONTINUOUS
10
128.31
20
-74.7916
11
128.29
21
-74.947
0
LINE
8
BLACK
6
CONTINUOUS
10
128.29
20
-74.947
11
128.23
21
-75.0918
0
LINE
8
BLACK
6
CONTINUOUS
10
128.23
20
-75.0918
11
128.134
21
-75.2161
0
LINE
8
BLACK
6
CONTINUOUS
10
128.134
20
-75.2161
11
128.01
21
-75.3116
0
LINE
8
BLACK
6
CONTINUOUS
10
128.01
20
-75.3116
11
127.865
21
-75.3715
0
LINE
8
BLACK
6
CONTINUOUS
10
127.865
20
-75.3715
11
127.71
21
-75.392
0
LINE
8
BLACK
6
CONTINUOUS
10
127.71
20
-75.392
11
127.01
21
-75.392
0
LINE
8
BLACK
6
CONTINUOUS
10
127.01
20
-75.392
11
126.855
21
-75.3715
0
LINE
8
BLACK
6
CONTINUOUS
10
126.855
20
-75.3715
11
126.71
21
-75.3116
0
LINE
8
BLACK
6
CONTINUOUS
10
126.71
20
-75.3116
11
126.586
21
-75.2161
0
LINE
8
BLACK
6
CONTINUOUS
10
126.586
20
-75.2161
11
126.49
21
-75.0918
0
LINE
8
BLACK
6
CONTINUOUS
10
126.49
20
-75.0918
11
126.43
21
-74.947
0
LINE
8
BLACK
6
CONTINUOUS
10
126.43
20
-74.947
11
126.41
21
-74.7916
0
LINE
8
BLACK
6
CONTINUOUS
10
126.41
20
-74.7916
11
126.41
21
-74.0924
0
LINE
8
BLACK
6
CONTINUOUS
10
126.41
20
-74.0924
11
126.43
21
-73.937
0
LINE
8
BLACK
6
CONTINUOUS
10
126.43
20
-73.937
11
126.49
21
-73.7922
0
LINE
8
BLACK
6
CONTINUOUS
10
126.49
20
-73.7922
11
126.586
21
-73.6679
0
LINE
8
BLACK
6
CONTINUOUS
10
126.586
20
-73.6679
11
126.71
21
-73.5724
0
LINE
8
BLACK
6
CONTINUOUS
10
126.71
20
-73.5724
11
126.855
21
-73.5125
0
LINE
8
BLACK
6
CONTINUOUS
10
126.855
20
-73.5125
11
127.01
21
-73.492
0
LINE
8
BLACK
6
CONTINUOUS
10
127.01
20
-73.492
11
127.71
21
-73.492
0
LINE
8
BLACK
6
CONTINUOUS
10
127.71
20
-73.492
11
127.865
21
-73.5125
0
LINE
8
BLACK
6
CONTINUOUS
10
136.808
20
-71.4717
11
136.94
21
-71.5214
0
LINE
8
BLACK
6
CONTINUOUS
10
136.94
20
-71.5214
11
137.054
21
-71.6064
0
LINE
8
BLACK
6
CONTINUOUS
10
137.054
20
-71.6064
11
137.139
21
-71.7197
0
LINE
8
BLACK
6
CONTINUOUS
10
137.139
20
-71.7197
11
137.188
21
-71.8524
0
LINE
8
BLACK
6
CONTINUOUS
10
137.188
20
-71.8524
11
137.2
21
-71.9597
0
LINE
8
BLACK
6
CONTINUOUS
10
137.2
20
-71.9597
11
137.2
21
-72.8603
0
LINE
8
BLACK
6
CONTINUOUS
10
137.2
20
-72.8603
11
137.188
21
-72.9676
0
LINE
8
BLACK
6
CONTINUOUS
10
137.188
20
-72.9676
11
137.139
21
-73.1003
0
LINE
8
BLACK
6
CONTINUOUS
10
137.139
20
-73.1003
11
137.054
21
-73.2136
0
LINE
8
BLACK
6
CONTINUOUS
10
137.054
20
-73.2136
11
136.94
21
-73.2986
0
LINE
8
BLACK
6
CONTINUOUS
10
136.94
20
-73.2986
11
136.808
21
-73.3483
0
LINE
8
BLACK
6
CONTINUOUS
10
136.808
20
-73.3483
11
136.7
21
-73.36
0
LINE
8
BLACK
6
CONTINUOUS
10
136.7
20
-73.36
11
135.8
21
-73.36
0
LINE
8
BLACK
6
CONTINUOUS
10
135.8
20
-73.36
11
135.692
21
-73.3483
0
LINE
8
BLACK
6
CONTINUOUS
10
135.692
20
-73.3483
11
135.56
21
-73.2986
0
LINE
8
BLACK
6
CONTINUOUS
10
135.56
20
-73.2986
11
135.446
21
-73.2136
0
LINE
8
BLACK
6
CONTINUOUS
10
135.446
20
-73.2136
11
135.361
21
-73.1003
0
LINE
8
BLACK
6
CONTINUOUS
10
135.361
20
-73.1003
11
135.312
21
-72.9676
0
LINE
8
BLACK
6
CONTINUOUS
10
135.312
20
-72.9676
11
135.3
21
-72.8603
0
LINE
8
BLACK
6
CONTINUOUS
10
135.3
20
-72.8603
11
135.3
21
-71.9597
0
LINE
8
BLACK
6
CONTINUOUS
10
135.3
20
-71.9597
11
135.312
21
-71.8524
0
LINE
8
BLACK
6
CONTINUOUS
10
135.312
20
-71.8524
11
135.361
21
-71.7197
0
LINE
8
BLACK
6
CONTINUOUS
10
135.361
20
-71.7197
11
135.446
21
-71.6064
0
LINE
8
BLACK
6
CONTINUOUS
10
135.446
20
-71.6064
11
135.56
21
-71.5214
0
LINE
8
BLACK
6
CONTINUOUS
10
135.56
20
-71.5214
11
135.692
21
-71.4717
0
LINE
8
BLACK
6
CONTINUOUS
10
135.692
20
-71.4717
11
135.8
21
-71.46
0
LINE
8
BLACK
6
CONTINUOUS
10
135.8
20
-71.46
11
136.7
21
-71.46
0
LINE
8
BLACK
6
CONTINUOUS
10
136.7
20
-71.46
11
136.808
21
-71.4717
0
LINE
8
BLACK
6
CONTINUOUS
10
121.008
20
-71.4717
11
121.14
21
-71.5214
0
LINE
8
BLACK
6
CONTINUOUS
10
121.14
20
-71.5214
11
121.254
21
-71.6064
0
LINE
8
BLACK
6
CONTINUOUS
10
121.254
20
-71.6064
11
121.339
21
-71.7197
0
LINE
8
BLACK
6
CONTINUOUS
10
121.339
20
-71.7197
11
121.388
21
-71.8524
0
LINE
8
BLACK
6
CONTINUOUS
10
121.388
20
-71.8524
11
121.4
21
-71.9597
0
LINE
8
BLACK
6
CONTINUOUS
10
121.4
20
-71.9597
11
121.4
21
-72.8603
0
LINE
8
BLACK
6
CONTINUOUS
10
121.4
20
-72.8603
11
121.388
21
-72.9676
0
LINE
8
BLACK
6
CONTINUOUS
10
121.388
20
-72.9676
11
121.339
21
-73.1003
0
LINE
8
BLACK
6
CONTINUOUS
10
121.339
20
-73.1003
11
121.254
21
-73.2136
0
LINE
8
BLACK
6
CONTINUOUS
10
121.254
20
-73.2136
11
121.14
21
-73.2986
0
LINE
8
BLACK
6
CONTINUOUS
10
121.14
20
-73.2986
11
121.008
21
-73.3483
0
LINE
8
BLACK
6
CONTINUOUS
10
121.008
20
-73.3483
11
120.9
21
-73.36
0
LINE
8
BLACK
6
CONTINUOUS
10
120.9
20
-73.36
11
120
21
-73.36
0
LINE
8
BLACK
6
CONTINUOUS
10
120
20
-73.36
11
119.892
21
-73.3483
0
LINE
8
BLACK
6
CONTINUOUS
10
119.892
20
-73.3483
11
119.76
21
-73.2986
0
LINE
8
BLACK
6
CONTINUOUS
10
119.76
20
-73.2986
11
119.646
21
-73.2136
0
LINE
8
BLACK
6
CONTINUOUS
10
119.646
20
-73.2136
11
119.561
21
-73.1003
0
LINE
8
BLACK
6
CONTINUOUS
10
119.561
20
-73.1003
11
119.512
21
-72.9676
0
LINE
8
BLACK
6
CONTINUOUS
10
119.512
20
-72.9676
11
119.5
21
-72.8603
0
LINE
8
BLACK
6
CONTINUOUS
10
119.5
20
-72.8603
11
119.5
21
-71.9597
0
LINE
8
BLACK
6
CONTINUOUS
10
119.5
20
-71.9597
11
119.512
21
-71.8524
0
LINE
8
BLACK
6
CONTINUOUS
10
119.512
20
-71.8524
11
119.561
21
-71.7197
0
LINE
8
BLACK
6
CONTINUOUS
10
119.561
20
-71.7197
11
119.646
21
-71.6064
0
LINE
8
BLACK
6
CONTINUOUS
10
119.646
20
-71.6064
11
119.76
21
-71.5214
0
LINE
8
BLACK
6
CONTINUOUS
10
119.76
20
-71.5214
11
119.892
21
-71.4717
0
LINE
8
BLACK
6
CONTINUOUS
10
119.892
20
-71.4717
11
120
21
-71.46
0
LINE
8
BLACK
6
CONTINUOUS
10
120
20
-71.46
11
120.9
21
-71.46
0
LINE
8
BLACK
6
CONTINUOUS
10
120.9
20
-71.46
11
121.008
21
-71.4717
0
LINE
8
BLACK
6
CONTINUOUS
10
108.308
20
-71.4717
11
108.44
21
-71.5214
0
LINE
8
BLACK
6
CONTINUOUS
10
108.44
20
-71.5214
11
108.554
21
-71.6064
0
LINE
8
BLACK
6
CONTINUOUS
10
108.554
20
-71.6064
11
108.639
21
-71.7197
0
LINE
8
BLACK
6
CONTINUOUS
10
108.639
20
-71.7197
11
108.688
21
-71.8524
0
LINE
8
BLACK
6
CONTINUOUS
10
108.688
20
-71.8524
11
108.7
21
-71.9597
0
LINE
8
BLACK
6
CONTINUOUS
10
108.7
20
-71.9597
11
108.7
21
-72.8603
0
LINE
8
BLACK
6
CONTINUOUS
10
108.7
20
-72.8603
11
108.688
21
-72.9676
0
LINE
8
BLACK
6
CONTINUOUS
10
108.688
20
-72.9676
11
108.639
21
-73.1003
0
LINE
8
BLACK
6
CONTINUOUS
10
108.639
20
-73.1003
11
108.554
21
-73.2136
0
LINE
8
BLACK
6
CONTINUOUS
10
108.554
20
-73.2136
11
108.44
21
-73.2986
0
LINE
8
BLACK
6
CONTINUOUS
10
108.44
20
-73.2986
11
108.308
21
-73.3483
0
LINE
8
BLACK
6
CONTINUOUS
10
108.308
20
-73.3483
11
108.2
21
-73.36
0
LINE
8
BLACK
6
CONTINUOUS
10
108.2
20
-73.36
11
107.3
21
-73.36
0
LINE
8
BLACK
6
CONTINUOUS
10
107.3
20
-73.36
11
107.192
21
-73.3483
0
LINE
8
BLACK
6
CONTINUOUS
10
107.192
20
-73.3483
11
107.06
21
-73.2986
0
LINE
8
BLACK
6
CONTINUOUS
10
107.06
20
-73.2986
11
106.946
21
-73.2136
0
LINE
8
BLACK
6
CONTINUOUS
10
106.946
20
-73.2136
11
106.861
21
-73.1003
0
LINE
8
BLACK
6
CONTINUOUS
10
106.861
20
-73.1003
11
106.812
21
-72.9676
0
LINE
8
BLACK
6
CONTINUOUS
10
106.812
20
-72.9676
11
106.8
21
-72.8603
0
LINE
8
BLACK
6
CONTINUOUS
10
106.8
20
-72.8603
11
106.8
21
-71.9597
0
LINE
8
BLACK
6
CONTINUOUS
10
106.8
20
-71.9597
11
106.812
21
-71.8524
0
LINE
8
BLACK
6
CONTINUOUS
10
106.812
20
-71.8524
11
106.861
21
-71.7197
0
LINE
8
BLACK
6
CONTINUOUS
10
106.861
20
-71.7197
11
106.946
21
-71.6064
0
LINE
8
BLACK
6
CONTINUOUS
10
106.946
20
-71.6064
11
107.06
21
-71.5214
0
LINE
8
BLACK
6
CONTINUOUS
10
107.06
20
-71.5214
11
107.192
21
-71.4717
0
LINE
8
BLACK
6
CONTINUOUS
10
107.192
20
-71.4717
11
107.3
21
-71.46
0
LINE
8
BLACK
6
CONTINUOUS
10
107.3
20
-71.46
11
108.2
21
-71.46
0
LINE
8
BLACK
6
CONTINUOUS
10
108.2
20
-71.46
11
108.308
21
-71.4717
0
LINE
8
BLACK
6
CONTINUOUS
10
126.648
20
-71.4717
11
126.78
21
-71.5214
0
LINE
8
BLACK
6
CONTINUOUS
10
126.78
20
-71.5214
11
126.894
21
-71.6064
0
LINE
8
BLACK
6
CONTINUOUS
10
126.894
20
-71.6064
11
126.979
21
-71.7197
0
LINE
8
BLACK
6
CONTINUOUS
10
126.979
20
-71.7197
11
127.028
21
-71.8524
0
LINE
8
BLACK
6
CONTINUOUS
10
127.028
20
-71.8524
11
127.04
21
-71.9597
0
LINE
8
BLACK
6
CONTINUOUS
10
127.04
20
-71.9597
11
127.04
21
-72.8603
0
LINE
8
BLACK
6
CONTINUOUS
10
127.04
20
-72.8603
11
127.028
21
-72.9676
0
LINE
8
BLACK
6
CONTINUOUS
10
127.028
20
-72.9676
11
126.979
21
-73.1003
0
LINE
8
BLACK
6
CONTINUOUS
10
126.979
20
-73.1003
11
126.894
21
-73.2136
0
LINE
8
BLACK
6
CONTINUOUS
10
126.894
20
-73.2136
11
126.78
21
-73.2986
0
LINE
8
BLACK
6
CONTINUOUS
10
126.78
20
-73.2986
11
126.648
21
-73.3483
0
LINE
8
BLACK
6
CONTINUOUS
10
126.648
20
-73.3483
11
126.54
21
-73.36
0
LINE
8
BLACK
6
CONTINUOUS
10
126.54
20
-73.36
11
125.64
21
-73.36
0
LINE
8
BLACK
6
CONTINUOUS
10
125.64
20
-73.36
11
125.532
21
-73.3483
0
LINE
8
BLACK
6
CONTINUOUS
10
125.532
20
-73.3483
11
125.4
21
-73.2986
0
LINE
8
BLACK
6
CONTINUOUS
10
125.4
20
-73.2986
11
125.286
21
-73.2136
0
LINE
8
BLACK
6
CONTINUOUS
10
125.286
20
-73.2136
11
125.201
21
-73.1003
0
LINE
8
BLACK
6
CONTINUOUS
10
125.201
20
-73.1003
11
125.152
21
-72.9676
0
LINE
8
BLACK
6
CONTINUOUS
10
125.152
20
-72.9676
11
125.14
21
-72.8603
0
LINE
8
BLACK
6
CONTINUOUS
10
125.14
20
-72.8603
11
125.14
21
-71.9597
0
LINE
8
BLACK
6
CONTINUOUS
10
125.14
20
-71.9597
11
125.152
21
-71.8524
0
LINE
8
BLACK
6
CONTINUOUS
10
125.152
20
-71.8524
11
125.201
21
-71.7197
0
LINE
8
BLACK
6
CONTINUOUS
10
125.201
20
-71.7197
11
125.286
21
-71.6064
0
LINE
8
BLACK
6
CONTINUOUS
10
125.286
20
-71.6064
11
125.4
21
-71.5214
0
LINE
8
BLACK
6
CONTINUOUS
10
125.4
20
-71.5214
11
125.532
21
-71.4717
0
LINE
8
BLACK
6
CONTINUOUS
10
125.532
20
-71.4717
11
125.64
21
-71.46
0
LINE
8
BLACK
6
CONTINUOUS
10
125.64
20
-71.46
11
126.54
21
-71.46
0
LINE
8
BLACK
6
CONTINUOUS
10
126.54
20
-71.46
11
126.648
21
-71.4717
0
LINE
8
BLACK
6
CONTINUOUS
10
129.188
20
-71.4717
11
129.32
21
-71.5214
0
LINE
8
BLACK
6
CONTINUOUS
10
129.32
20
-71.5214
11
129.434
21
-71.6064
0
LINE
8
BLACK
6
CONTINUOUS
10
129.434
20
-71.6064
11
129.519
21
-71.7197
0
LINE
8
BLACK
6
CONTINUOUS
10
129.519
20
-71.7197
11
129.568
21
-71.8524
0
LINE
8
BLACK
6
CONTINUOUS
10
129.568
20
-71.8524
11
129.58
21
-71.9597
0
LINE
8
BLACK
6
CONTINUOUS
10
129.58
20
-71.9597
11
129.58
21
-72.8603
0
LINE
8
BLACK
6
CONTINUOUS
10
129.58
20
-72.8603
11
129.568
21
-72.9676
0
LINE
8
BLACK
6
CONTINUOUS
10
129.568
20
-72.9676
11
129.519
21
-73.1003
0
LINE
8
BLACK
6
CONTINUOUS
10
129.519
20
-73.1003
11
129.434
21
-73.2136
0
LINE
8
BLACK
6
CONTINUOUS
10
129.434
20
-73.2136
11
129.32
21
-73.2986
0
LINE
8
BLACK
6
CONTINUOUS
10
129.32
20
-73.2986
11
129.188
21
-73.3483
0
LINE
8
BLACK
6
CONTINUOUS
10
129.188
20
-73.3483
11
129.08
21
-73.36
0
LINE
8
BLACK
6
CONTINUOUS
10
129.08
20
-73.36
11
128.18
21
-73.36
0
LINE
8
BLACK
6
CONTINUOUS
10
128.18
20
-73.36
11
128.072
21
-73.3483
0
LINE
8
BLACK
6
CONTINUOUS
10
128.072
20
-73.3483
11
127.94
21
-73.2986
0
LINE
8
BLACK
6
CONTINUOUS
10
127.94
20
-73.2986
11
127.826
21
-73.2136
0
LINE
8
BLACK
6
CONTINUOUS
10
127.826
20
-73.2136
11
127.741
21
-73.1003
0
LINE
8
BLACK
6
CONTINUOUS
10
127.741
20
-73.1003
11
127.692
21
-72.9676
0
LINE
8
BLACK
6
CONTINUOUS
10
127.692
20
-72.9676
11
127.68
21
-72.8603
0
LINE
8
BLACK
6
CONTINUOUS
10
127.68
20
-72.8603
11
127.68
21
-71.9597
0
LINE
8
BLACK
6
CONTINUOUS
10
127.68
20
-71.9597
11
127.692
21
-71.8524
0
LINE
8
BLACK
6
CONTINUOUS
10
127.692
20
-71.8524
11
127.741
21
-71.7197
0
LINE
8
BLACK
6
CONTINUOUS
10
127.741
20
-71.7197
11
127.826
21
-71.6064
0
LINE
8
BLACK
6
CONTINUOUS
10
127.826
20
-71.6064
11
127.94
21
-71.5214
0
LINE
8
BLACK
6
CONTINUOUS
10
127.94
20
-71.5214
11
128.072
21
-71.4717
0
LINE
8
BLACK
6
CONTINUOUS
10
128.072
20
-71.4717
11
128.18
21
-71.46
0
LINE
8
BLACK
6
CONTINUOUS
10
128.18
20
-71.46
11
129.08
21
-71.46
0
LINE
8
BLACK
6
CONTINUOUS
10
129.08
20
-71.46
11
129.188
21
-71.4717
0
LINE
8
BLACK
6
CONTINUOUS
10
124.108
20
-71.4717
11
124.24
21
-71.5214
0
LINE
8
BLACK
6
CONTINUOUS
10
124.24
20
-71.5214
11
124.354
21
-71.6064
0
LINE
8
BLACK
6
CONTINUOUS
10
124.354
20
-71.6064
11
124.439
21
-71.7197
0
LINE
8
BLACK
6
CONTINUOUS
10
124.439
20
-71.7197
11
124.488
21
-71.8524
0
LINE
8
BLACK
6
CONTINUOUS
10
124.488
20
-71.8524
11
124.5
21
-71.9597
0
LINE
8
BLACK
6
CONTINUOUS
10
124.5
20
-71.9597
11
124.5
21
-72.8603
0
LINE
8
BLACK
6
CONTINUOUS
10
124.5
20
-72.8603
11
124.488
21
-72.9676
0
LINE
8
BLACK
6
CONTINUOUS
10
124.488
20
-72.9676
11
124.439
21
-73.1003
0
LINE
8
BLACK
6
CONTINUOUS
10
124.439
20
-73.1003
11
124.354
21
-73.2136
0
LINE
8
BLACK
6
CONTINUOUS
10
124.354
20
-73.2136
11
124.24
21
-73.2986
0
LINE
8
BLACK
6
CONTINUOUS
10
124.24
20
-73.2986
11
124.108
21
-73.3483
0
LINE
8
BLACK
6
CONTINUOUS
10
124.108
20
-73.3483
11
124
21
-73.36
0
LINE
8
BLACK
6
CONTINUOUS
10
124
20
-73.36
11
123.1
21
-73.36
0
LINE
8
BLACK
6
CONTINUOUS
10
123.1
20
-73.36
11
122.992
21
-73.3483
0
LINE
8
BLACK
6
CONTINUOUS
10
122.992
20
-73.3483
11
122.86
21
-73.2986
0
LINE
8
BLACK
6
CONTINUOUS
10
122.86
20
-73.2986
11
122.746
21
-73.2136
0
LINE
8
BLACK
6
CONTINUOUS
10
122.746
20
-73.2136
11
122.661
21
-73.1003
0
LINE
8
BLACK
6
CONTINUOUS
10
122.661
20
-73.1003
11
122.612
21
-72.9676
0
LINE
8
BLACK
6
CONTINUOUS
10
122.612
20
-72.9676
11
122.6
21
-72.8603
0
LINE
8
BLACK
6
CONTINUOUS
10
122.6
20
-72.8603
11
122.6
21
-71.9597
0
LINE
8
BLACK
6
CONTINUOUS
10
122.6
20
-71.9597
11
122.612
21
-71.8524
0
LINE
8
BLACK
6
CONTINUOUS
10
122.612
20
-71.8524
11
122.661
21
-71.7197
0
LINE
8
BLACK
6
CONTINUOUS
10
122.661
20
-71.7197
11
122.746
21
-71.6064
0
LINE
8
BLACK
6
CONTINUOUS
10
122.746
20
-71.6064
11
122.86
21
-71.5214
0
LINE
8
BLACK
6
CONTINUOUS
10
122.86
20
-71.5214
11
122.992
21
-71.4717
0
LINE
8
BLACK
6
CONTINUOUS
10
122.992
20
-71.4717
11
123.1
21
-71.46
0
LINE
8
BLACK
6
CONTINUOUS
10
123.1
20
-71.46
11
124
21
-71.46
0
LINE
8
BLACK
6
CONTINUOUS
10
124
20
-71.46
11
124.108
21
-71.4717
0
LINE
8
BLACK
6
CONTINUOUS
10
102.341
20
-71.756
11
102.509
21
-71.8158
0
LINE
8
BLACK
6
CONTINUOUS
10
102.509
20
-71.8158
11
102.659
21
-71.9114
0
LINE
8
BLACK
6
CONTINUOUS
10
102.659
20
-71.9114
11
102.785
21
-72.0379
0
LINE
8
BLACK
6
CONTINUOUS
10
102.785
20
-72.0379
11
102.88
21
-72.1892
0
LINE
8
BLACK
6
CONTINUOUS
10
102.88
20
-72.1892
11
102.938
21
-72.3576
0
LINE
8
BLACK
6
CONTINUOUS
10
102.938
20
-72.3576
11
102.958
21
-72.5348
0
LINE
8
BLACK
6
CONTINUOUS
10
102.958
20
-72.5348
11
102.958
21
-72.5572
0
LINE
8
BLACK
6
CONTINUOUS
10
102.958
20
-72.5572
11
102.933
21
-72.7338
0
LINE
8
BLACK
6
CONTINUOUS
10
102.933
20
-72.7338
11
102.87
21
-72.9005
0
LINE
8
BLACK
6
CONTINUOUS
10
102.87
20
-72.9005
11
102.771
21
-73.0491
0
LINE
8
BLACK
6
CONTINUOUS
10
102.771
20
-73.0491
11
102.642
21
-73.1721
0
LINE
8
BLACK
6
CONTINUOUS
10
102.642
20
-73.1721
11
102.489
21
-73.2634
0
LINE
8
BLACK
6
CONTINUOUS
10
102.489
20
-73.2634
11
102.319
21
-73.3185
0
LINE
8
BLACK
6
CONTINUOUS
10
102.319
20
-73.3185
11
102.141
21
-73.3347
0
LINE
8
BLACK
6
CONTINUOUS
10
102.141
20
-73.3347
11
101.965
21
-73.3111
0
LINE
8
BLACK
6
CONTINUOUS
10
101.965
20
-73.3111
11
101.797
21
-73.2489
0
LINE
8
BLACK
6
CONTINUOUS
10
101.797
20
-73.2489
11
101.648
21
-73.1513
0
LINE
8
BLACK
6
CONTINUOUS
10
101.648
20
-73.1513
11
101.524
21
-73.023
0
LINE
8
BLACK
6
CONTINUOUS
10
101.524
20
-73.023
11
101.432
21
-72.8704
0
LINE
8
BLACK
6
CONTINUOUS
10
101.432
20
-72.8704
11
101.376
21
-72.7012
0
LINE
8
BLACK
6
CONTINUOUS
10
101.376
20
-72.7012
11
101.358
21
-72.5237
0
LINE
8
BLACK
6
CONTINUOUS
10
101.358
20
-72.5237
11
101.381
21
-72.3467
0
LINE
8
BLACK
6
CONTINUOUS
10
101.381
20
-72.3467
11
101.442
21
-72.1791
0
LINE
8
BLACK
6
CONTINUOUS
10
101.442
20
-72.1791
11
101.538
21
-72.0292
0
LINE
8
BLACK
6
CONTINUOUS
10
101.538
20
-72.0292
11
101.666
21
-71.9044
0
LINE
8
BLACK
6
CONTINUOUS
10
101.666
20
-71.9044
11
101.818
21
-71.811
0
LINE
8
BLACK
6
CONTINUOUS
10
101.818
20
-71.811
11
101.986
21
-71.7535
0
LINE
8
BLACK
6
CONTINUOUS
10
101.986
20
-71.7535
11
102.164
21
-71.7349
0
LINE
8
BLACK
6
CONTINUOUS
10
102.164
20
-71.7349
11
102.341
21
-71.756
0
LINE
8
BLACK
6
CONTINUOUS
10
141.745
20
-71.0053
11
141.924
21
-71.0453
0
LINE
8
BLACK
6
CONTINUOUS
10
141.924
20
-71.0453
11
142.09
21
-71.1229
0
LINE
8
BLACK
6
CONTINUOUS
10
142.09
20
-71.1229
11
142.236
21
-71.2345
0
LINE
8
BLACK
6
CONTINUOUS
10
142.236
20
-71.2345
11
142.355
21
-71.3747
0
LINE
8
BLACK
6
CONTINUOUS
10
142.355
20
-71.3747
11
142.44
21
-71.5371
0
LINE
8
BLACK
6
CONTINUOUS
10
142.44
20
-71.5371
11
142.489
21
-71.7141
0
LINE
8
BLACK
6
CONTINUOUS
10
142.489
20
-71.7141
11
142.499
21
-71.8974
0
LINE
8
BLACK
6
CONTINUOUS
10
142.499
20
-71.8974
11
142.469
21
-72.0786
0
LINE
8
BLACK
6
CONTINUOUS
10
142.469
20
-72.0786
11
142.401
21
-72.2491
0
LINE
8
BLACK
6
CONTINUOUS
10
142.401
20
-72.2491
11
142.297
21
-72.4009
0
LINE
8
BLACK
6
CONTINUOUS
10
142.297
20
-72.4009
11
142.164
21
-72.5271
0
LINE
8
BLACK
6
CONTINUOUS
10
142.164
20
-72.5271
11
142.007
21
-72.6216
0
LINE
8
BLACK
6
CONTINUOUS
10
142.007
20
-72.6216
11
141.833
21
-72.6802
0
LINE
8
BLACK
6
CONTINUOUS
10
141.833
20
-72.6802
11
141.65
21
-72.7
0
LINE
8
BLACK
6
CONTINUOUS
10
141.65
20
-72.7
11
141.4
21
-72.7
0
LINE
8
BLACK
6
CONTINUOUS
10
141.4
20
-72.7
11
141.305
21
-72.6947
0
LINE
8
BLACK
6
CONTINUOUS
10
141.305
20
-72.6947
11
141.126
21
-72.6547
0
LINE
8
BLACK
6
CONTINUOUS
10
141.126
20
-72.6547
11
140.96
21
-72.5771
0
LINE
8
BLACK
6
CONTINUOUS
10
140.96
20
-72.5771
11
140.814
21
-72.4655
0
LINE
8
BLACK
6
CONTINUOUS
10
140.814
20
-72.4655
11
140.695
21
-72.3253
0
LINE
8
BLACK
6
CONTINUOUS
10
140.695
20
-72.3253
11
140.61
21
-72.1629
0
LINE
8
BLACK
6
CONTINUOUS
10
140.61
20
-72.1629
11
140.561
21
-71.9859
0
LINE
8
BLACK
6
CONTINUOUS
10
140.561
20
-71.9859
11
140.551
21
-71.8026
0
LINE
8
BLACK
6
CONTINUOUS
10
140.551
20
-71.8026
11
140.581
21
-71.6214
0
LINE
8
BLACK
6
CONTINUOUS
10
140.581
20
-71.6214
11
140.649
21
-71.4509
0
LINE
8
BLACK
6
CONTINUOUS
10
140.649
20
-71.4509
11
140.753
21
-71.2991
0
LINE
8
BLACK
6
CONTINUOUS
10
140.753
20
-71.2991
11
140.886
21
-71.173
0
LINE
8
BLACK
6
CONTINUOUS
10
140.886
20
-71.173
11
141.043
21
-71.0784
0
LINE
8
BLACK
6
CONTINUOUS
10
141.043
20
-71.0784
11
141.217
21
-71.0198
0
LINE
8
BLACK
6
CONTINUOUS
10
141.217
20
-71.0198
11
141.4
21
-71
0
LINE
8
BLACK
6
CONTINUOUS
10
141.4
20
-71
11
141.65
21
-71
0
LINE
8
BLACK
6
CONTINUOUS
10
141.65
20
-71
11
141.745
21
-71.0053
0
LINE
8
BLACK
6
CONTINUOUS
10
104.704
20
-71.1206
11
103.572
21
-72.252
0
LINE
8
BLACK
6
CONTINUOUS
10
103.572
20
-72.252
11
102.441
21
-71.1206
0
LINE
8
BLACK
6
CONTINUOUS
10
102.441
20
-71.1206
11
103.572
21
-69.9893
0
LINE
8
BLACK
6
CONTINUOUS
10
103.572
20
-69.9893
11
104.704
21
-71.1206
0
LINE
8
BLACK
6
CONTINUOUS
10
124.108
20
-68.4017
11
124.24
21
-68.4514
0
LINE
8
BLACK
6
CONTINUOUS
10
124.24
20
-68.4514
11
124.354
21
-68.5364
0
LINE
8
BLACK
6
CONTINUOUS
10
124.354
20
-68.5364
11
124.439
21
-68.6497
0
LINE
8
BLACK
6
CONTINUOUS
10
124.439
20
-68.6497
11
124.488
21
-68.7824
0
LINE
8
BLACK
6
CONTINUOUS
10
124.488
20
-68.7824
11
124.5
21
-68.8897
0
LINE
8
BLACK
6
CONTINUOUS
10
124.5
20
-68.8897
11
124.5
21
-69.7903
0
LINE
8
BLACK
6
CONTINUOUS
10
124.5
20
-69.7903
11
124.488
21
-69.8976
0
LINE
8
BLACK
6
CONTINUOUS
10
124.488
20
-69.8976
11
124.439
21
-70.0303
0
LINE
8
BLACK
6
CONTINUOUS
10
124.439
20
-70.0303
11
124.354
21
-70.1436
0
LINE
8
BLACK
6
CONTINUOUS
10
124.354
20
-70.1436
11
124.24
21
-70.2286
0
LINE
8
BLACK
6
CONTINUOUS
10
124.24
20
-70.2286
11
124.108
21
-70.2783
0
LINE
8
BLACK
6
CONTINUOUS
10
124.108
20
-70.2783
11
124
21
-70.29
0
LINE
8
BLACK
6
CONTINUOUS
10
124
20
-70.29
11
123.1
21
-70.29
0
LINE
8
BLACK
6
CONTINUOUS
10
123.1
20
-70.29
11
122.992
21
-70.2783
0
LINE
8
BLACK
6
CONTINUOUS
10
122.992
20
-70.2783
11
122.86
21
-70.2286
0
LINE
8
BLACK
6
CONTINUOUS
10
122.86
20
-70.2286
11
122.746
21
-70.1436
0
LINE
8
BLACK
6
CONTINUOUS
10
122.746
20
-70.1436
11
122.661
21
-70.0303
0
LINE
8
BLACK
6
CONTINUOUS
10
122.661
20
-70.0303
11
122.612
21
-69.8976
0
LINE
8
BLACK
6
CONTINUOUS
10
122.612
20
-69.8976
11
122.6
21
-69.7903
0
LINE
8
BLACK
6
CONTINUOUS
10
122.6
20
-69.7903
11
122.6
21
-68.8897
0
LINE
8
BLACK
6
CONTINUOUS
10
122.6
20
-68.8897
11
122.612
21
-68.7824
0
LINE
8
BLACK
6
CONTINUOUS
10
122.612
20
-68.7824
11
122.661
21
-68.6497
0
LINE
8
BLACK
6
CONTINUOUS
10
122.661
20
-68.6497
11
122.746
21
-68.5364
0
LINE
8
BLACK
6
CONTINUOUS
10
122.746
20
-68.5364
11
122.86
21
-68.4514
0
LINE
8
BLACK
6
CONTINUOUS
10
122.86
20
-68.4514
11
122.992
21
-68.4017
0
LINE
8
BLACK
6
CONTINUOUS
10
122.992
20
-68.4017
11
123.1
21
-68.39
0
LINE
8
BLACK
6
CONTINUOUS
10
123.1
20
-68.39
11
124
21
-68.39
0
LINE
8
BLACK
6
CONTINUOUS
10
124
20
-68.39
11
124.108
21
-68.4017
0
LINE
8
BLACK
6
CONTINUOUS
10
136.808
20
-68.4017
11
136.94
21
-68.4514
0
LINE
8
BLACK
6
CONTINUOUS
10
136.94
20
-68.4514
11
137.054
21
-68.5364
0
LINE
8
BLACK
6
CONTINUOUS
10
137.054
20
-68.5364
11
137.139
21
-68.6497
0
LINE
8
BLACK
6
CONTINUOUS
10
137.139
20
-68.6497
11
137.188
21
-68.7824
0
LINE
8
BLACK
6
CONTINUOUS
10
137.188
20
-68.7824
11
137.2
21
-68.8897
0
LINE
8
BLACK
6
CONTINUOUS
10
137.2
20
-68.8897
11
137.2
21
-69.7903
0
LINE
8
BLACK
6
CONTINUOUS
10
137.2
20
-69.7903
11
137.188
21
-69.8976
0
LINE
8
BLACK
6
CONTINUOUS
10
137.188
20
-69.8976
11
137.139
21
-70.0303
0
LINE
8
BLACK
6
CONTINUOUS
10
137.139
20
-70.0303
11
137.054
21
-70.1436
0
LINE
8
BLACK
6
CONTINUOUS
10
137.054
20
-70.1436
11
136.94
21
-70.2286
0
LINE
8
BLACK
6
CONTINUOUS
10
136.94
20
-70.2286
11
136.808
21
-70.2783
0
LINE
8
BLACK
6
CONTINUOUS
10
136.808
20
-70.2783
11
136.7
21
-70.29
0
LINE
8
BLACK
6
CONTINUOUS
10
136.7
20
-70.29
11
135.8
21
-70.29
0
LINE
8
BLACK
6
CONTINUOUS
10
135.8
20
-70.29
11
135.692
21
-70.2783
0
LINE
8
BLACK
6
CONTINUOUS
10
135.692
20
-70.2783
11
135.56
21
-70.2286
0
LINE
8
BLACK
6
CONTINUOUS
10
135.56
20
-70.2286
11
135.446
21
-70.1436
0
LINE
8
BLACK
6
CONTINUOUS
10
135.446
20
-70.1436
11
135.361
21
-70.0303
0
LINE
8
BLACK
6
CONTINUOUS
10
135.361
20
-70.0303
11
135.312
21
-69.8976
0
LINE
8
BLACK
6
CONTINUOUS
10
135.312
20
-69.8976
11
135.3
21
-69.7903
0
LINE
8
BLACK
6
CONTINUOUS
10
135.3
20
-69.7903
11
135.3
21
-68.8897
0
LINE
8
BLACK
6
CONTINUOUS
10
135.3
20
-68.8897
11
135.312
21
-68.7824
0
LINE
8
BLACK
6
CONTINUOUS
10
135.312
20
-68.7824
11
135.361
21
-68.6497
0
LINE
8
BLACK
6
CONTINUOUS
10
135.361
20
-68.6497
11
135.446
21
-68.5364
0
LINE
8
BLACK
6
CONTINUOUS
10
135.446
20
-68.5364
11
135.56
21
-68.4514
0
LINE
8
BLACK
6
CONTINUOUS
10
135.56
20
-68.4514
11
135.692
21
-68.4017
0
LINE
8
BLACK
6
CONTINUOUS
10
135.692
20
-68.4017
11
135.8
21
-68.39
0
LINE
8
BLACK
6
CONTINUOUS
10
135.8
20
-68.39
11
136.7
21
-68.39
0
LINE
8
BLACK
6
CONTINUOUS
10
136.7
20
-68.39
11
136.808
21
-68.4017
0
LINE
8
BLACK
6
CONTINUOUS
10
108.308
20
-68.4017
11
108.44
21
-68.4514
0
LINE
8
BLACK
6
CONTINUOUS
10
108.44
20
-68.4514
11
108.554
21
-68.5364
0
LINE
8
BLACK
6
CONTINUOUS
10
108.554
20
-68.5364
11
108.639
21
-68.6497
0
LINE
8
BLACK
6
CONTINUOUS
10
108.639
20
-68.6497
11
108.688
21
-68.7824
0
LINE
8
BLACK
6
CONTINUOUS
10
108.688
20
-68.7824
11
108.7
21
-68.8897
0
LINE
8
BLACK
6
CONTINUOUS
10
108.7
20
-68.8897
11
108.7
21
-69.7903
0
LINE
8
BLACK
6
CONTINUOUS
10
108.7
20
-69.7903
11
108.688
21
-69.8976
0
LINE
8
BLACK
6
CONTINUOUS
10
108.688
20
-69.8976
11
108.639
21
-70.0303
0
LINE
8
BLACK
6
CONTINUOUS
10
108.639
20
-70.0303
11
108.554
21
-70.1436
0
LINE
8
BLACK
6
CONTINUOUS
10
108.554
20
-70.1436
11
108.44
21
-70.2286
0
LINE
8
BLACK
6
CONTINUOUS
10
108.44
20
-70.2286
11
108.308
21
-70.2783
0
LINE
8
BLACK
6
CONTINUOUS
10
108.308
20
-70.2783
11
108.2
21
-70.29
0
LINE
8
BLACK
6
CONTINUOUS
10
108.2
20
-70.29
11
107.3
21
-70.29
0
LINE
8
BLACK
6
CONTINUOUS
10
107.3
20
-70.29
11
107.192
21
-70.2783
0
LINE
8
BLACK
6
CONTINUOUS
10
107.192
20
-70.2783
11
107.06
21
-70.2286
0
LINE
8
BLACK
6
CONTINUOUS
10
107.06
20
-70.2286
11
106.946
21
-70.1436
0
LINE
8
BLACK
6
CONTINUOUS
10
106.946
20
-70.1436
11
106.861
21
-70.0303
0
LINE
8
BLACK
6
CONTINUOUS
10
106.861
20
-70.0303
11
106.812
21
-69.8976
0
LINE
8
BLACK
6
CONTINUOUS
10
106.812
20
-69.8976
11
106.8
21
-69.7903
0
LINE
8
BLACK
6
CONTINUOUS
10
106.8
20
-69.7903
11
106.8
21
-68.8897
0
LINE
8
BLACK
6
CONTINUOUS
10
106.8
20
-68.8897
11
106.812
21
-68.7824
0
LINE
8
BLACK
6
CONTINUOUS
10
106.812
20
-68.7824
11
106.861
21
-68.6497
0
LINE
8
BLACK
6
CONTINUOUS
10
106.861
20
-68.6497
11
106.946
21
-68.5364
0
LINE
8
BLACK
6
CONTINUOUS
10
106.946
20
-68.5364
11
107.06
21
-68.4514
0
LINE
8
BLACK
6
CONTINUOUS
10
107.06
20
-68.4514
11
107.192
21
-68.4017
0
LINE
8
BLACK
6
CONTINUOUS
10
107.192
20
-68.4017
11
107.3
21
-68.39
0
LINE
8
BLACK
6
CONTINUOUS
10
107.3
20
-68.39
11
108.2
21
-68.39
0
LINE
8
BLACK
6
CONTINUOUS
10
108.2
20
-68.39
11
108.308
21
-68.4017
0
LINE
8
BLACK
6
CONTINUOUS
10
121.008
20
-68.4017
11
121.14
21
-68.4514
0
LINE
8
BLACK
6
CONTINUOUS
10
121.14
20
-68.4514
11
121.254
21
-68.5364
0
LINE
8
BLACK
6
CONTINUOUS
10
121.254
20
-68.5364
11
121.339
21
-68.6497
0
LINE
8
BLACK
6
CONTINUOUS
10
121.339
20
-68.6497
11
121.388
21
-68.7824
0
LINE
8
BLACK
6
CONTINUOUS
10
121.388
20
-68.7824
11
121.4
21
-68.8897
0
LINE
8
BLACK
6
CONTINUOUS
10
121.4
20
-68.8897
11
121.4
21
-69.7903
0
LINE
8
BLACK
6
CONTINUOUS
10
121.4
20
-69.7903
11
121.388
21
-69.8976
0
LINE
8
BLACK
6
CONTINUOUS
10
121.388
20
-69.8976
11
121.339
21
-70.0303
0
LINE
8
BLACK
6
CONTINUOUS
10
121.339
20
-70.0303
11
121.254
21
-70.1436
0
LINE
8
BLACK
6
CONTINUOUS
10
121.254
20
-70.1436
11
121.14
21
-70.2286
0
LINE
8
BLACK
6
CONTINUOUS
10
121.14
20
-70.2286
11
121.008
21
-70.2783
0
LINE
8
BLACK
6
CONTINUOUS
10
121.008
20
-70.2783
11
120.9
21
-70.29
0
LINE
8
BLACK
6
CONTINUOUS
10
120.9
20
-70.29
11
120
21
-70.29
0
LINE
8
BLACK
6
CONTINUOUS
10
120
20
-70.29
11
119.892
21
-70.2783
0
LINE
8
BLACK
6
CONTINUOUS
10
119.892
20
-70.2783
11
119.76
21
-70.2286
0
LINE
8
BLACK
6
CONTINUOUS
10
119.76
20
-70.2286
11
119.646
21
-70.1436
0
LINE
8
BLACK
6
CONTINUOUS
10
119.646
20
-70.1436
11
119.561
21
-70.0303
0
LINE
8
BLACK
6
CONTINUOUS
10
119.561
20
-70.0303
11
119.512
21
-69.8976
0
LINE
8
BLACK
6
CONTINUOUS
10
119.512
20
-69.8976
11
119.5
21
-69.7903
0
LINE
8
BLACK
6
CONTINUOUS
10
119.5
20
-69.7903
11
119.5
21
-68.8897
0
LINE
8
BLACK
6
CONTINUOUS
10
119.5
20
-68.8897
11
119.512
21
-68.7824
0
LINE
8
BLACK
6
CONTINUOUS
10
119.512
20
-68.7824
11
119.561
21
-68.6497
0
LINE
8
BLACK
6
CONTINUOUS
10
119.561
20
-68.6497
11
119.646
21
-68.5364
0
LINE
8
BLACK
6
CONTINUOUS
10
119.646
20
-68.5364
11
119.76
21
-68.4514
0
LINE
8
BLACK
6
CONTINUOUS
10
119.76
20
-68.4514
11
119.892
21
-68.4017
0
LINE
8
BLACK
6
CONTINUOUS
10
119.892
20
-68.4017
11
120
21
-68.39
0
LINE
8
BLACK
6
CONTINUOUS
10
120
20
-68.39
11
120.9
21
-68.39
0
LINE
8
BLACK
6
CONTINUOUS
10
120.9
20
-68.39
11
121.008
21
-68.4017
0
LINE
8
BLACK
6
CONTINUOUS
10
115.928
20
-68.4017
11
116.06
21
-68.4514
0
LINE
8
BLACK
6
CONTINUOUS
10
116.06
20
-68.4514
11
116.174
21
-68.5364
0
LINE
8
BLACK
6
CONTINUOUS
10
116.174
20
-68.5364
11
116.259
21
-68.6497
0
LINE
8
BLACK
6
CONTINUOUS
10
116.259
20
-68.6497
11
116.308
21
-68.7824
0
LINE
8
BLACK
6
CONTINUOUS
10
116.308
20
-68.7824
11
116.32
21
-68.8897
0
LINE
8
BLACK
6
CONTINUOUS
10
116.32
20
-68.8897
11
116.32
21
-69.7903
0
LINE
8
BLACK
6
CONTINUOUS
10
116.32
20
-69.7903
11
116.308
21
-69.8976
0
LINE
8
BLACK
6
CONTINUOUS
10
116.308
20
-69.8976
11
116.259
21
-70.0303
0
LINE
8
BLACK
6
CONTINUOUS
10
116.259
20
-70.0303
11
116.174
21
-70.1436
0
LINE
8
BLACK
6
CONTINUOUS
10
116.174
20
-70.1436
11
116.06
21
-70.2286
0
LINE
8
BLACK
6
CONTINUOUS
10
116.06
20
-70.2286
11
115.928
21
-70.2783
0
LINE
8
BLACK
6
CONTINUOUS
10
115.928
20
-70.2783
11
115.82
21
-70.29
0
LINE
8
BLACK
6
CONTINUOUS
10
115.82
20
-70.29
11
114.92
21
-70.29
0
LINE
8
BLACK
6
CONTINUOUS
10
114.92
20
-70.29
11
114.812
21
-70.2783
0
LINE
8
BLACK
6
CONTINUOUS
10
114.812
20
-70.2783
11
114.68
21
-70.2286
0
LINE
8
BLACK
6
CONTINUOUS
10
114.68
20
-70.2286
11
114.566
21
-70.1436
0
LINE
8
BLACK
6
CONTINUOUS
10
114.566
20
-70.1436
11
114.481
21
-70.0303
0
LINE
8
BLACK
6
CONTINUOUS
10
114.481
20
-70.0303
11
114.432
21
-69.8976
0
LINE
8
BLACK
6
CONTINUOUS
10
114.432
20
-69.8976
11
114.42
21
-69.7903
0
LINE
8
BLACK
6
CONTINUOUS
10
114.42
20
-69.7903
11
114.42
21
-68.8897
0
LINE
8
BLACK
6
CONTINUOUS
10
114.42
20
-68.8897
11
114.432
21
-68.7824
0
LINE
8
BLACK
6
CONTINUOUS
10
114.432
20
-68.7824
11
114.481
21
-68.6497
0
LINE
8
BLACK
6
CONTINUOUS
10
114.481
20
-68.6497
11
114.566
21
-68.5364
0
LINE
8
BLACK
6
CONTINUOUS
10
114.566
20
-68.5364
11
114.68
21
-68.4514
0
LINE
8
BLACK
6
CONTINUOUS
10
114.68
20
-68.4514
11
114.812
21
-68.4017
0
LINE
8
BLACK
6
CONTINUOUS
10
114.812
20
-68.4017
11
114.92
21
-68.39
0
LINE
8
BLACK
6
CONTINUOUS
10
114.92
20
-68.39
11
115.82
21
-68.39
0
LINE
8
BLACK
6
CONTINUOUS
10
115.82
20
-68.39
11
115.928
21
-68.4017
0
LINE
8
BLACK
6
CONTINUOUS
10
118.468
20
-68.4017
11
118.6
21
-68.4514
0
LINE
8
BLACK
6
CONTINUOUS
10
118.6
20
-68.4514
11
118.714
21
-68.5364
0
LINE
8
BLACK
6
CONTINUOUS
10
118.714
20
-68.5364
11
118.799
21
-68.6497
0
LINE
8
BLACK
6
CONTINUOUS
10
118.799
20
-68.6497
11
118.848
21
-68.7824
0
LINE
8
BLACK
6
CONTINUOUS
10
118.848
20
-68.7824
11
118.86
21
-68.8897
0
LINE
8
BLACK
6
CONTINUOUS
10
118.86
20
-68.8897
11
118.86
21
-69.7903
0
LINE
8
BLACK
6
CONTINUOUS
10
118.86
20
-69.7903
11
118.848
21
-69.8976
0
LINE
8
BLACK
6
CONTINUOUS
10
118.848
20
-69.8976
11
118.799
21
-70.0303
0
LINE
8
BLACK
6
CONTINUOUS
10
118.799
20
-70.0303
11
118.714
21
-70.1436
0
LINE
8
BLACK
6
CONTINUOUS
10
118.714
20
-70.1436
11
118.6
21
-70.2286
0
LINE
8
BLACK
6
CONTINUOUS
10
118.6
20
-70.2286
11
118.468
21
-70.2783
0
LINE
8
BLACK
6
CONTINUOUS
10
118.468
20
-70.2783
11
118.36
21
-70.29
0
LINE
8
BLACK
6
CONTINUOUS
10
118.36
20
-70.29
11
117.46
21
-70.29
0
LINE
8
BLACK
6
CONTINUOUS
10
117.46
20
-70.29
11
117.352
21
-70.2783
0
LINE
8
BLACK
6
CONTINUOUS
10
117.352
20
-70.2783
11
117.22
21
-70.2286
0
LINE
8
BLACK
6
CONTINUOUS
10
117.22
20
-70.2286
11
117.106
21
-70.1436
0
LINE
8
BLACK
6
CONTINUOUS
10
117.106
20
-70.1436
11
117.021
21
-70.0303
0
LINE
8
BLACK
6
CONTINUOUS
10
117.021
20
-70.0303
11
116.972
21
-69.8976
0
LINE
8
BLACK
6
CONTINUOUS
10
116.972
20
-69.8976
11
116.96
21
-69.7903
0
LINE
8
BLACK
6
CONTINUOUS
10
116.96
20
-69.7903
11
116.96
21
-68.8897
0
LINE
8
BLACK
6
CONTINUOUS
10
116.96
20
-68.8897
11
116.972
21
-68.7824
0
LINE
8
BLACK
6
CONTINUOUS
10
116.972
20
-68.7824
11
117.021
21
-68.6497
0
LINE
8
BLACK
6
CONTINUOUS
10
117.021
20
-68.6497
11
117.106
21
-68.5364
0
LINE
8
BLACK
6
CONTINUOUS
10
117.106
20
-68.5364
11
117.22
21
-68.4514
0
LINE
8
BLACK
6
CONTINUOUS
10
117.22
20
-68.4514
11
117.352
21
-68.4017
0
LINE
8
BLACK
6
CONTINUOUS
10
117.352
20
-68.4017
11
117.46
21
-68.39
0
LINE
8
BLACK
6
CONTINUOUS
10
117.46
20
-68.39
11
118.36
21
-68.39
0
LINE
8
BLACK
6
CONTINUOUS
10
118.36
20
-68.39
11
118.468
21
-68.4017
0
LINE
8
BLACK
6
CONTINUOUS
10
141.745
20
-68.5053
11
141.924
21
-68.5453
0
LINE
8
BLACK
6
CONTINUOUS
10
141.924
20
-68.5453
11
142.09
21
-68.6229
0
LINE
8
BLACK
6
CONTINUOUS
10
142.09
20
-68.6229
11
142.236
21
-68.7345
0
LINE
8
BLACK
6
CONTINUOUS
10
142.236
20
-68.7345
11
142.355
21
-68.8747
0
LINE
8
BLACK
6
CONTINUOUS
10
142.355
20
-68.8747
11
142.44
21
-69.0371
0
LINE
8
BLACK
6
CONTINUOUS
10
142.44
20
-69.0371
11
142.489
21
-69.2141
0
LINE
8
BLACK
6
CONTINUOUS
10
142.489
20
-69.2141
11
142.499
21
-69.3974
0
LINE
8
BLACK
6
CONTINUOUS
10
142.499
20
-69.3974
11
142.469
21
-69.5786
0
LINE
8
BLACK
6
CONTINUOUS
10
142.469
20
-69.5786
11
142.401
21
-69.7491
0
LINE
8
BLACK
6
CONTINUOUS
10
142.401
20
-69.7491
11
142.297
21
-69.9009
0
LINE
8
BLACK
6
CONTINUOUS
10
142.297
20
-69.9009
11
142.164
21
-70.0271
0
LINE
8
BLACK
6
CONTINUOUS
10
142.164
20
-70.0271
11
142.007
21
-70.1216
0
LINE
8
BLACK
6
CONTINUOUS
10
142.007
20
-70.1216
11
141.833
21
-70.1802
0
LINE
8
BLACK
6
CONTINUOUS
10
141.833
20
-70.1802
11
141.65
21
-70.2
0
LINE
8
BLACK
6
CONTINUOUS
10
141.65
20
-70.2
11
141.4
21
-70.2
0
LINE
8
BLACK
6
CONTINUOUS
10
141.4
20
-70.2
11
141.305
21
-70.1947
0
LINE
8
BLACK
6
CONTINUOUS
10
141.305
20
-70.1947
11
141.126
21
-70.1547
0
LINE
8
BLACK
6
CONTINUOUS
10
141.126
20
-70.1547
11
140.96
21
-70.0771
0
LINE
8
BLACK
6
CONTINUOUS
10
140.96
20
-70.0771
11
140.814
21
-69.9655
0
LINE
8
BLACK
6
CONTINUOUS
10
140.814
20
-69.9655
11
140.695
21
-69.8253
0
LINE
8
BLACK
6
CONTINUOUS
10
140.695
20
-69.8253
11
140.61
21
-69.6629
0
LINE
8
BLACK
6
CONTINUOUS
10
140.61
20
-69.6629
11
140.561
21
-69.4859
0
LINE
8
BLACK
6
CONTINUOUS
10
140.561
20
-69.4859
11
140.551
21
-69.3026
0
LINE
8
BLACK
6
CONTINUOUS
10
140.551
20
-69.3026
11
140.581
21
-69.1214
0
LINE
8
BLACK
6
CONTINUOUS
10
140.581
20
-69.1214
11
140.649
21
-68.9509
0
LINE
8
BLACK
6
CONTINUOUS
10
140.649
20
-68.9509
11
140.753
21
-68.7991
0
LINE
8
BLACK
6
CONTINUOUS
10
140.753
20
-68.7991
11
140.886
21
-68.673
0
LINE
8
BLACK
6
CONTINUOUS
10
140.886
20
-68.673
11
141.043
21
-68.5784
0
LINE
8
BLACK
6
CONTINUOUS
10
141.043
20
-68.5784
11
141.217
21
-68.5198
0
LINE
8
BLACK
6
CONTINUOUS
10
141.217
20
-68.5198
11
141.4
21
-68.5
0
LINE
8
BLACK
6
CONTINUOUS
10
141.4
20
-68.5
11
141.65
21
-68.5
0
LINE
8
BLACK
6
CONTINUOUS
10
141.65
20
-68.5
11
141.745
21
-68.5053
0
LINE
8
BLACK
6
CONTINUOUS
10
131.152
20
-66.7367
11
131.22
21
-66.7891
0
LINE
8
BLACK
6
CONTINUOUS
10
131.22
20
-66.7891
11
131.886
21
-67.4544
0
LINE
8
BLACK
6
CONTINUOUS
10
131.886
20
-67.4544
11
131.938
21
-67.5226
0
LINE
8
BLACK
6
CONTINUOUS
10
131.938
20
-67.5226
11
131.977
21
-67.6302
0
LINE
8
BLACK
6
CONTINUOUS
10
131.977
20
-67.6302
11
131.977
21
-67.7447
0
LINE
8
BLACK
6
CONTINUOUS
10
131.977
20
-67.7447
11
131.938
21
-67.8522
0
LINE
8
BLACK
6
CONTINUOUS
10
131.938
20
-67.8522
11
131.886
21
-67.9205
0
LINE
8
BLACK
6
CONTINUOUS
10
131.886
20
-67.9205
11
131.22
21
-68.5857
0
LINE
8
BLACK
6
CONTINUOUS
10
131.22
20
-68.5857
11
131.152
21
-68.6381
0
LINE
8
BLACK
6
CONTINUOUS
10
131.152
20
-68.6381
11
131.045
21
-68.6773
0
LINE
8
BLACK
6
CONTINUOUS
10
131.045
20
-68.6773
11
130.93
21
-68.6773
0
LINE
8
BLACK
6
CONTINUOUS
10
130.93
20
-68.6773
11
130.823
21
-68.6381
0
LINE
8
BLACK
6
CONTINUOUS
10
130.823
20
-68.6381
11
130.754
21
-68.5857
0
LINE
8
BLACK
6
CONTINUOUS
10
130.754
20
-68.5857
11
130.089
21
-67.9205
0
LINE
8
BLACK
6
CONTINUOUS
10
130.089
20
-67.9205
11
130.037
21
-67.8522
0
LINE
8
BLACK
6
CONTINUOUS
10
130.037
20
-67.8522
11
129.998
21
-67.7447
0
LINE
8
BLACK
6
CONTINUOUS
10
129.998
20
-67.7447
11
129.998
21
-67.6302
0
LINE
8
BLACK
6
CONTINUOUS
10
129.998
20
-67.6302
11
130.037
21
-67.5226
0
LINE
8
BLACK
6
CONTINUOUS
10
130.037
20
-67.5226
11
130.089
21
-67.4544
0
LINE
8
BLACK
6
CONTINUOUS
10
130.089
20
-67.4544
11
130.754
21
-66.7891
0
LINE
8
BLACK
6
CONTINUOUS
10
130.754
20
-66.7891
11
130.823
21
-66.7367
0
LINE
8
BLACK
6
CONTINUOUS
10
130.823
20
-66.7367
11
130.93
21
-66.6976
0
LINE
8
BLACK
6
CONTINUOUS
10
130.93
20
-66.6976
11
131.045
21
-66.6976
0
LINE
8
BLACK
6
CONTINUOUS
10
131.045
20
-66.6976
11
131.152
21
-66.7367
0
LINE
8
BLACK
6
CONTINUOUS
10
117.145
20
-66.3785
11
117.29
21
-66.4384
0
LINE
8
BLACK
6
CONTINUOUS
10
117.29
20
-66.4384
11
117.414
21
-66.5339
0
LINE
8
BLACK
6
CONTINUOUS
10
117.414
20
-66.5339
11
117.51
21
-66.6582
0
LINE
8
BLACK
6
CONTINUOUS
10
117.51
20
-66.6582
11
117.57
21
-66.803
0
LINE
8
BLACK
6
CONTINUOUS
10
117.57
20
-66.803
11
117.59
21
-66.9584
0
LINE
8
BLACK
6
CONTINUOUS
10
117.59
20
-66.9584
11
117.59
21
-67.6576
0
LINE
8
BLACK
6
CONTINUOUS
10
117.59
20
-67.6576
11
117.57
21
-67.813
0
LINE
8
BLACK
6
CONTINUOUS
10
117.57
20
-67.813
11
117.51
21
-67.9578
0
LINE
8
BLACK
6
CONTINUOUS
10
117.51
20
-67.9578
11
117.414
21
-68.0821
0
LINE
8
BLACK
6
CONTINUOUS
10
117.414
20
-68.0821
11
117.29
21
-68.1776
0
LINE
8
BLACK
6
CONTINUOUS
10
117.29
20
-68.1776
11
117.145
21
-68.2375
0
LINE
8
BLACK
6
CONTINUOUS
10
117.145
20
-68.2375
11
116.99
21
-68.258
0
LINE
8
BLACK
6
CONTINUOUS
10
116.99
20
-68.258
11
116.29
21
-68.258
0
LINE
8
BLACK
6
CONTINUOUS
10
116.29
20
-68.258
11
116.135
21
-68.2375
0
LINE
8
BLACK
6
CONTINUOUS
10
116.135
20
-68.2375
11
115.99
21
-68.1776
0
LINE
8
BLACK
6
CONTINUOUS
10
115.99
20
-68.1776
11
115.866
21
-68.0821
0
LINE
8
BLACK
6
CONTINUOUS
10
115.866
20
-68.0821
11
115.77
21
-67.9578
0
LINE
8
BLACK
6
CONTINUOUS
10
115.77
20
-67.9578
11
115.71
21
-67.813
0
LINE
8
BLACK
6
CONTINUOUS
10
115.71
20
-67.813
11
115.69
21
-67.6576
0
LINE
8
BLACK
6
CONTINUOUS
10
115.69
20
-67.6576
11
115.69
21
-66.9584
0
LINE
8
BLACK
6
CONTINUOUS
10
115.69
20
-66.9584
11
115.71
21
-66.803
0
LINE
8
BLACK
6
CONTINUOUS
10
115.71
20
-66.803
11
115.77
21
-66.6582
0
LINE
8
BLACK
6
CONTINUOUS
10
115.77
20
-66.6582
11
115.866
21
-66.5339
0
LINE
8
BLACK
6
CONTINUOUS
10
115.866
20
-66.5339
11
115.99
21
-66.4384
0
LINE
8
BLACK
6
CONTINUOUS
10
115.99
20
-66.4384
11
116.135
21
-66.3785
0
LINE
8
BLACK
6
CONTINUOUS
10
116.135
20
-66.3785
11
116.29
21
-66.358
0
LINE
8
BLACK
6
CONTINUOUS
10
116.29
20
-66.358
11
116.99
21
-66.358
0
LINE
8
BLACK
6
CONTINUOUS
10
116.99
20
-66.358
11
117.145
21
-66.3785
0
LINE
8
BLACK
6
CONTINUOUS
10
121.008
20
-65.8617
11
121.14
21
-65.9114
0
LINE
8
BLACK
6
CONTINUOUS
10
121.14
20
-65.9114
11
121.254
21
-65.9964
0
LINE
8
BLACK
6
CONTINUOUS
10
121.254
20
-65.9964
11
121.339
21
-66.1097
0
LINE
8
BLACK
6
CONTINUOUS
10
121.339
20
-66.1097
11
121.388
21
-66.2424
0
LINE
8
BLACK
6
CONTINUOUS
10
121.388
20
-66.2424
11
121.4
21
-66.3497
0
LINE
8
BLACK
6
CONTINUOUS
10
121.4
20
-66.3497
11
121.4
21
-67.2503
0
LINE
8
BLACK
6
CONTINUOUS
10
121.4
20
-67.2503
11
121.388
21
-67.3576
0
LINE
8
BLACK
6
CONTINUOUS
10
121.388
20
-67.3576
11
121.339
21
-67.4903
0
LINE
8
BLACK
6
CONTINUOUS
10
121.339
20
-67.4903
11
121.254
21
-67.6036
0
LINE
8
BLACK
6
CONTINUOUS
10
121.254
20
-67.6036
11
121.14
21
-67.6886
0
LINE
8
BLACK
6
CONTINUOUS
10
121.14
20
-67.6886
11
121.008
21
-67.7383
0
LINE
8
BLACK
6
CONTINUOUS
10
121.008
20
-67.7383
11
120.9
21
-67.75
0
LINE
8
BLACK
6
CONTINUOUS
10
120.9
20
-67.75
11
120
21
-67.75
0
LINE
8
BLACK
6
CONTINUOUS
10
120
20
-67.75
11
119.892
21
-67.7383
0
LINE
8
BLACK
6
CONTINUOUS
10
119.892
20
-67.7383
11
119.76
21
-67.6886
0
LINE
8
BLACK
6
CONTINUOUS
10
119.76
20
-67.6886
11
119.646
21
-67.6036
0
LINE
8
BLACK
6
CONTINUOUS
10
119.646
20
-67.6036
11
119.561
21
-67.4903
0
LINE
8
BLACK
6
CONTINUOUS
10
119.561
20
-67.4903
11
119.512
21
-67.3576
0
LINE
8
BLACK
6
CONTINUOUS
10
119.512
20
-67.3576
11
119.5
21
-67.2503
0
LINE
8
BLACK
6
CONTINUOUS
10
119.5
20
-67.2503
11
119.5
21
-66.3497
0
LINE
8
BLACK
6
CONTINUOUS
10
119.5
20
-66.3497
11
119.512
21
-66.2424
0
LINE
8
BLACK
6
CONTINUOUS
10
119.512
20
-66.2424
11
119.561
21
-66.1097
0
LINE
8
BLACK
6
CONTINUOUS
10
119.561
20
-66.1097
11
119.646
21
-65.9964
0
LINE
8
BLACK
6
CONTINUOUS
10
119.646
20
-65.9964
11
119.76
21
-65.9114
0
LINE
8
BLACK
6
CONTINUOUS
10
119.76
20
-65.9114
11
119.892
21
-65.8617
0
LINE
8
BLACK
6
CONTINUOUS
10
119.892
20
-65.8617
11
120
21
-65.85
0
LINE
8
BLACK
6
CONTINUOUS
10
120
20
-65.85
11
120.9
21
-65.85
0
LINE
8
BLACK
6
CONTINUOUS
10
120.9
20
-65.85
11
121.008
21
-65.8617
0
LINE
8
BLACK
6
CONTINUOUS
10
136.808
20
-65.8617
11
136.94
21
-65.9114
0
LINE
8
BLACK
6
CONTINUOUS
10
136.94
20
-65.9114
11
137.054
21
-65.9964
0
LINE
8
BLACK
6
CONTINUOUS
10
137.054
20
-65.9964
11
137.139
21
-66.1097
0
LINE
8
BLACK
6
CONTINUOUS
10
137.139
20
-66.1097
11
137.188
21
-66.2424
0
LINE
8
BLACK
6
CONTINUOUS
10
137.188
20
-66.2424
11
137.2
21
-66.3497
0
LINE
8
BLACK
6
CONTINUOUS
10
137.2
20
-66.3497
11
137.2
21
-67.2503
0
LINE
8
BLACK
6
CONTINUOUS
10
137.2
20
-67.2503
11
137.188
21
-67.3576
0
LINE
8
BLACK
6
CONTINUOUS
10
137.188
20
-67.3576
11
137.139
21
-67.4903
0
LINE
8
BLACK
6
CONTINUOUS
10
137.139
20
-67.4903
11
137.054
21
-67.6036
0
LINE
8
BLACK
6
CONTINUOUS
10
137.054
20
-67.6036
11
136.94
21
-67.6886
0
LINE
8
BLACK
6
CONTINUOUS
10
136.94
20
-67.6886
11
136.808
21
-67.7383
0
LINE
8
BLACK
6
CONTINUOUS
10
136.808
20
-67.7383
11
136.7
21
-67.75
0
LINE
8
BLACK
6
CONTINUOUS
10
136.7
20
-67.75
11
135.8
21
-67.75
0
LINE
8
BLACK
6
CONTINUOUS
10
135.8
20
-67.75
11
135.692
21
-67.7383
0
LINE
8
BLACK
6
CONTINUOUS
10
135.692
20
-67.7383
11
135.56
21
-67.6886
0
LINE
8
BLACK
6
CONTINUOUS
10
135.56
20
-67.6886
11
135.446
21
-67.6036
0
LINE
8
BLACK
6
CONTINUOUS
10
135.446
20
-67.6036
11
135.361
21
-67.4903
0
LINE
8
BLACK
6
CONTINUOUS
10
135.361
20
-67.4903
11
135.312
21
-67.3576
0
LINE
8
BLACK
6
CONTINUOUS
10
135.312
20
-67.3576
11
135.3
21
-67.2503
0
LINE
8
BLACK
6
CONTINUOUS
10
135.3
20
-67.2503
11
135.3
21
-66.3497
0
LINE
8
BLACK
6
CONTINUOUS
10
135.3
20
-66.3497
11
135.312
21
-66.2424
0
LINE
8
BLACK
6
CONTINUOUS
10
135.312
20
-66.2424
11
135.361
21
-66.1097
0
LINE
8
BLACK
6
CONTINUOUS
10
135.361
20
-66.1097
11
135.446
21
-65.9964
0
LINE
8
BLACK
6
CONTINUOUS
10
135.446
20
-65.9964
11
135.56
21
-65.9114
0
LINE
8
BLACK
6
CONTINUOUS
10
135.56
20
-65.9114
11
135.692
21
-65.8617
0
LINE
8
BLACK
6
CONTINUOUS
10
135.692
20
-65.8617
11
135.8
21
-65.85
0
LINE
8
BLACK
6
CONTINUOUS
10
135.8
20
-65.85
11
136.7
21
-65.85
0
LINE
8
BLACK
6
CONTINUOUS
10
136.7
20
-65.85
11
136.808
21
-65.8617
0
LINE
8
BLACK
6
CONTINUOUS
10
124.108
20
-65.8617
11
124.24
21
-65.9114
0
LINE
8
BLACK
6
CONTINUOUS
10
124.24
20
-65.9114
11
124.354
21
-65.9964
0
LINE
8
BLACK
6
CONTINUOUS
10
124.354
20
-65.9964
11
124.439
21
-66.1097
0
LINE
8
BLACK
6
CONTINUOUS
10
124.439
20
-66.1097
11
124.488
21
-66.2424
0
LINE
8
BLACK
6
CONTINUOUS
10
124.488
20
-66.2424
11
124.5
21
-66.3497
0
LINE
8
BLACK
6
CONTINUOUS
10
124.5
20
-66.3497
11
124.5
21
-67.2503
0
LINE
8
BLACK
6
CONTINUOUS
10
124.5
20
-67.2503
11
124.488
21
-67.3576
0
LINE
8
BLACK
6
CONTINUOUS
10
124.488
20
-67.3576
11
124.439
21
-67.4903
0
LINE
8
BLACK
6
CONTINUOUS
10
124.439
20
-67.4903
11
124.354
21
-67.6036
0
LINE
8
BLACK
6
CONTINUOUS
10
124.354
20
-67.6036
11
124.24
21
-67.6886
0
LINE
8
BLACK
6
CONTINUOUS
10
124.24
20
-67.6886
11
124.108
21
-67.7383
0
LINE
8
BLACK
6
CONTINUOUS
10
124.108
20
-67.7383
11
124
21
-67.75
0
LINE
8
BLACK
6
CONTINUOUS
10
124
20
-67.75
11
123.1
21
-67.75
0
LINE
8
BLACK
6
CONTINUOUS
10
123.1
20
-67.75
11
122.992
21
-67.7383
0
LINE
8
BLACK
6
CONTINUOUS
10
122.992
20
-67.7383
11
122.86
21
-67.6886
0
LINE
8
BLACK
6
CONTINUOUS
10
122.86
20
-67.6886
11
122.746
21
-67.6036
0
LINE
8
BLACK
6
CONTINUOUS
10
122.746
20
-67.6036
11
122.661
21
-67.4903
0
LINE
8
BLACK
6
CONTINUOUS
10
122.661
20
-67.4903
11
122.612
21
-67.3576
0
LINE
8
BLACK
6
CONTINUOUS
10
122.612
20
-67.3576
11
122.6
21
-67.2503
0
LINE
8
BLACK
6
CONTINUOUS
10
122.6
20
-67.2503
11
122.6
21
-66.3497
0
LINE
8
BLACK
6
CONTINUOUS
10
122.6
20
-66.3497
11
122.612
21
-66.2424
0
LINE
8
BLACK
6
CONTINUOUS
10
122.612
20
-66.2424
11
122.661
21
-66.1097
0
LINE
8
BLACK
6
CONTINUOUS
10
122.661
20
-66.1097
11
122.746
21
-65.9964
0
LINE
8
BLACK
6
CONTINUOUS
10
122.746
20
-65.9964
11
122.86
21
-65.9114
0
LINE
8
BLACK
6
CONTINUOUS
10
122.86
20
-65.9114
11
122.992
21
-65.8617
0
LINE
8
BLACK
6
CONTINUOUS
10
122.992
20
-65.8617
11
123.1
21
-65.85
0
LINE
8
BLACK
6
CONTINUOUS
10
123.1
20
-65.85
11
124
21
-65.85
0
LINE
8
BLACK
6
CONTINUOUS
10
124
20
-65.85
11
124.108
21
-65.8617
0
LINE
8
BLACK
6
CONTINUOUS
10
108.308
20
-65.8617
11
108.44
21
-65.9114
0
LINE
8
BLACK
6
CONTINUOUS
10
108.44
20
-65.9114
11
108.554
21
-65.9964
0
LINE
8
BLACK
6
CONTINUOUS
10
108.554
20
-65.9964
11
108.639
21
-66.1097
0
LINE
8
BLACK
6
CONTINUOUS
10
108.639
20
-66.1097
11
108.688
21
-66.2424
0
LINE
8
BLACK
6
CONTINUOUS
10
108.688
20
-66.2424
11
108.7
21
-66.3497
0
LINE
8
BLACK
6
CONTINUOUS
10
108.7
20
-66.3497
11
108.7
21
-67.2503
0
LINE
8
BLACK
6
CONTINUOUS
10
108.7
20
-67.2503
11
108.688
21
-67.3576
0
LINE
8
BLACK
6
CONTINUOUS
10
108.688
20
-67.3576
11
108.639
21
-67.4903
0
LINE
8
BLACK
6
CONTINUOUS
10
108.639
20
-67.4903
11
108.554
21
-67.6036
0
LINE
8
BLACK
6
CONTINUOUS
10
108.554
20
-67.6036
11
108.44
21
-67.6886
0
LINE
8
BLACK
6
CONTINUOUS
10
108.44
20
-67.6886
11
108.308
21
-67.7383
0
LINE
8
BLACK
6
CONTINUOUS
10
108.308
20
-67.7383
11
108.2
21
-67.75
0
LINE
8
BLACK
6
CONTINUOUS
10
108.2
20
-67.75
11
107.3
21
-67.75
0
LINE
8
BLACK
6
CONTINUOUS
10
107.3
20
-67.75
11
107.192
21
-67.7383
0
LINE
8
BLACK
6
CONTINUOUS
10
107.192
20
-67.7383
11
107.06
21
-67.6886
0
LINE
8
BLACK
6
CONTINUOUS
10
107.06
20
-67.6886
11
106.946
21
-67.6036
0
LINE
8
BLACK
6
CONTINUOUS
10
106.946
20
-67.6036
11
106.861
21
-67.4903
0
LINE
8
BLACK
6
CONTINUOUS
10
106.861
20
-67.4903
11
106.812
21
-67.3576
0
LINE
8
BLACK
6
CONTINUOUS
10
106.812
20
-67.3576
11
106.8
21
-67.2503
0
LINE
8
BLACK
6
CONTINUOUS
10
106.8
20
-67.2503
11
106.8
21
-66.3497
0
LINE
8
BLACK
6
CONTINUOUS
10
106.8
20
-66.3497
11
106.812
21
-66.2424
0
LINE
8
BLACK
6
CONTINUOUS
10
106.812
20
-66.2424
11
106.861
21
-66.1097
0
LINE
8
BLACK
6
CONTINUOUS
10
106.861
20
-66.1097
11
106.946
21
-65.9964
0
LINE
8
BLACK
6
CONTINUOUS
10
106.946
20
-65.9964
11
107.06
21
-65.9114
0
LINE
8
BLACK
6
CONTINUOUS
10
107.06
20
-65.9114
11
107.192
21
-65.8617
0
LINE
8
BLACK
6
CONTINUOUS
10
107.192
20
-65.8617
11
107.3
21
-65.85
0
LINE
8
BLACK
6
CONTINUOUS
10
107.3
20
-65.85
11
108.2
21
-65.85
0
LINE
8
BLACK
6
CONTINUOUS
10
108.2
20
-65.85
11
108.308
21
-65.8617
0
LINE
8
BLACK
6
CONTINUOUS
10
141.745
20
-66.0053
11
141.924
21
-66.0453
0
LINE
8
BLACK
6
CONTINUOUS
10
141.924
20
-66.0453
11
142.09
21
-66.1229
0
LINE
8
BLACK
6
CONTINUOUS
10
142.09
20
-66.1229
11
142.236
21
-66.2345
0
LINE
8
BLACK
6
CONTINUOUS
10
142.236
20
-66.2345
11
142.355
21
-66.3747
0
LINE
8
BLACK
6
CONTINUOUS
10
142.355
20
-66.3747
11
142.44
21
-66.5371
0
LINE
8
BLACK
6
CONTINUOUS
10
142.44
20
-66.5371
11
142.489
21
-66.7141
0
LINE
8
BLACK
6
CONTINUOUS
10
142.489
20
-66.7141
11
142.499
21
-66.8974
0
LINE
8
BLACK
6
CONTINUOUS
10
142.499
20
-66.8974
11
142.469
21
-67.0786
0
LINE
8
BLACK
6
CONTINUOUS
10
142.469
20
-67.0786
11
142.401
21
-67.2491
0
LINE
8
BLACK
6
CONTINUOUS
10
142.401
20
-67.2491
11
142.297
21
-67.4009
0
LINE
8
BLACK
6
CONTINUOUS
10
142.297
20
-67.4009
11
142.164
21
-67.5271
0
LINE
8
BLACK
6
CONTINUOUS
10
142.164
20
-67.5271
11
142.007
21
-67.6216
0
LINE
8
BLACK
6
CONTINUOUS
10
142.007
20
-67.6216
11
141.833
21
-67.6802
0
LINE
8
BLACK
6
CONTINUOUS
10
141.833
20
-67.6802
11
141.65
21
-67.7
0
LINE
8
BLACK
6
CONTINUOUS
10
141.65
20
-67.7
11
141.4
21
-67.7
0
LINE
8
BLACK
6
CONTINUOUS
10
141.4
20
-67.7
11
141.305
21
-67.6947
0
LINE
8
BLACK
6
CONTINUOUS
10
141.305
20
-67.6947
11
141.126
21
-67.6547
0
LINE
8
BLACK
6
CONTINUOUS
10
141.126
20
-67.6547
11
140.96
21
-67.5771
0
LINE
8
BLACK
6
CONTINUOUS
10
140.96
20
-67.5771
11
140.814
21
-67.4655
0
LINE
8
BLACK
6
CONTINUOUS
10
140.814
20
-67.4655
11
140.695
21
-67.3253
0
LINE
8
BLACK
6
CONTINUOUS
10
140.695
20
-67.3253
11
140.61
21
-67.1629
0
LINE
8
BLACK
6
CONTINUOUS
10
140.61
20
-67.1629
11
140.561
21
-66.9859
0
LINE
8
BLACK
6
CONTINUOUS
10
140.561
20
-66.9859
11
140.551
21
-66.8026
0
LINE
8
BLACK
6
CONTINUOUS
10
140.551
20
-66.8026
11
140.581
21
-66.6214
0
LINE
8
BLACK
6
CONTINUOUS
10
140.581
20
-66.6214
11
140.649
21
-66.4509
0
LINE
8
BLACK
6
CONTINUOUS
10
140.649
20
-66.4509
11
140.753
21
-66.2991
0
LINE
8
BLACK
6
CONTINUOUS
10
140.753
20
-66.2991
11
140.886
21
-66.173
0
LINE
8
BLACK
6
CONTINUOUS
10
140.886
20
-66.173
11
141.043
21
-66.0784
0
LINE
8
BLACK
6
CONTINUOUS
10
141.043
20
-66.0784
11
141.217
21
-66.0198
0
LINE
8
BLACK
6
CONTINUOUS
10
141.217
20
-66.0198
11
141.4
21
-66
0
LINE
8
BLACK
6
CONTINUOUS
10
141.4
20
-66
11
141.65
21
-66
0
LINE
8
BLACK
6
CONTINUOUS
10
141.65
20
-66
11
141.745
21
-66.0053
0
LINE
8
BLACK
6
CONTINUOUS
10
103.296
20
-65.419
11
103.377
21
-65.4732
0
LINE
8
BLACK
6
CONTINUOUS
10
103.377
20
-65.4732
11
103.431
21
-65.5543
0
LINE
8
BLACK
6
CONTINUOUS
10
103.431
20
-65.5543
11
103.45
21
-65.65
0
LINE
8
BLACK
6
CONTINUOUS
10
103.45
20
-65.65
11
103.45
21
-66.85
0
LINE
8
BLACK
6
CONTINUOUS
10
103.45
20
-66.85
11
103.431
21
-66.9457
0
LINE
8
BLACK
6
CONTINUOUS
10
103.431
20
-66.9457
11
103.377
21
-67.0268
0
LINE
8
BLACK
6
CONTINUOUS
10
103.377
20
-67.0268
11
103.296
21
-67.081
0
LINE
8
BLACK
6
CONTINUOUS
10
103.296
20
-67.081
11
103.2
21
-67.1
0
LINE
8
BLACK
6
CONTINUOUS
10
103.2
20
-67.1
11
101.75
21
-67.1
0
LINE
8
BLACK
6
CONTINUOUS
10
101.75
20
-67.1
11
101.654
21
-67.081
0
LINE
8
BLACK
6
CONTINUOUS
10
101.654
20
-67.081
11
101.573
21
-67.0268
0
LINE
8
BLACK
6
CONTINUOUS
10
101.573
20
-67.0268
11
101.519
21
-66.9457
0
LINE
8
BLACK
6
CONTINUOUS
10
101.519
20
-66.9457
11
101.5
21
-66.85
0
LINE
8
BLACK
6
CONTINUOUS
10
101.5
20
-66.85
11
101.5
21
-65.65
0
LINE
8
BLACK
6
CONTINUOUS
10
101.5
20
-65.65
11
101.519
21
-65.5543
0
LINE
8
BLACK
6
CONTINUOUS
10
101.519
20
-65.5543
11
101.573
21
-65.4732
0
LINE
8
BLACK
6
CONTINUOUS
10
101.573
20
-65.4732
11
101.654
21
-65.419
0
LINE
8
BLACK
6
CONTINUOUS
10
101.654
20
-65.419
11
101.75
21
-65.4
0
LINE
8
BLACK
6
CONTINUOUS
10
101.75
20
-65.4
11
103.2
21
-65.4
0
LINE
8
BLACK
6
CONTINUOUS
10
103.2
20
-65.4
11
103.296
21
-65.419
0
LINE
8
BLACK
6
CONTINUOUS
10
128.695
20
-64.4337
11
128.863
21
-64.4935
0
LINE
8
BLACK
6
CONTINUOUS
10
128.863
20
-64.4935
11
129.014
21
-64.5891
0
LINE
8
BLACK
6
CONTINUOUS
10
129.014
20
-64.5891
11
129.14
21
-64.7156
0
LINE
8
BLACK
6
CONTINUOUS
10
129.14
20
-64.7156
11
129.234
21
-64.8669
0
LINE
8
BLACK
6
CONTINUOUS
10
129.234
20
-64.8669
11
129.293
21
-65.0353
0
LINE
8
BLACK
6
CONTINUOUS
10
129.293
20
-65.0353
11
129.313
21
-65.2126
0
LINE
8
BLACK
6
CONTINUOUS
10
129.313
20
-65.2126
11
129.312
21
-65.2349
0
LINE
8
BLACK
6
CONTINUOUS
10
129.312
20
-65.2349
11
129.287
21
-65.4115
0
LINE
8
BLACK
6
CONTINUOUS
10
129.287
20
-65.4115
11
129.224
21
-65.5782
0
LINE
8
BLACK
6
CONTINUOUS
10
129.224
20
-65.5782
11
129.125
21
-65.7268
0
LINE
8
BLACK
6
CONTINUOUS
10
129.125
20
-65.7268
11
128.996
21
-65.8498
0
LINE
8
BLACK
6
CONTINUOUS
10
128.996
20
-65.8498
11
128.843
21
-65.9411
0
LINE
8
BLACK
6
CONTINUOUS
10
128.843
20
-65.9411
11
128.673
21
-65.9962
0
LINE
8
BLACK
6
CONTINUOUS
10
128.673
20
-65.9962
11
128.496
21
-66.0124
0
LINE
8
BLACK
6
CONTINUOUS
10
128.496
20
-66.0124
11
128.319
21
-65.9888
0
LINE
8
BLACK
6
CONTINUOUS
10
128.319
20
-65.9888
11
128.152
21
-65.9266
0
LINE
8
BLACK
6
CONTINUOUS
10
128.152
20
-65.9266
11
128.003
21
-65.829
0
LINE
8
BLACK
6
CONTINUOUS
10
128.003
20
-65.829
11
127.879
21
-65.7007
0
LINE
8
BLACK
6
CONTINUOUS
10
127.879
20
-65.7007
11
127.786
21
-65.5481
0
LINE
8
BLACK
6
CONTINUOUS
10
127.786
20
-65.5481
11
127.73
21
-65.3789
0
LINE
8
BLACK
6
CONTINUOUS
10
127.73
20
-65.3789
11
127.713
21
-65.2014
0
LINE
8
BLACK
6
CONTINUOUS
10
127.713
20
-65.2014
11
127.735
21
-65.0244
0
LINE
8
BLACK
6
CONTINUOUS
10
127.735
20
-65.0244
11
127.796
21
-64.8569
0
LINE
8
BLACK
6
CONTINUOUS
10
127.796
20
-64.8569
11
127.893
21
-64.7069
0
LINE
8
BLACK
6
CONTINUOUS
10
127.893
20
-64.7069
11
128.02
21
-64.5822
0
LINE
8
BLACK
6
CONTINUOUS
10
128.02
20
-64.5822
11
128.172
21
-64.4887
0
LINE
8
BLACK
6
CONTINUOUS
10
128.172
20
-64.4887
11
128.341
21
-64.4312
0
LINE
8
BLACK
6
CONTINUOUS
10
128.341
20
-64.4312
11
128.518
21
-64.4126
0
LINE
8
BLACK
6
CONTINUOUS
10
128.518
20
-64.4126
11
128.695
21
-64.4337
0
LINE
8
BLACK
6
CONTINUOUS
10
117.95
20
-63.905
11
118.024
21
-63.9055
0
LINE
8
BLACK
6
CONTINUOUS
10
118.024
20
-63.9055
11
118.16
21
-63.9461
0
LINE
8
BLACK
6
CONTINUOUS
10
118.16
20
-63.9461
11
118.279
21
-64.0232
0
LINE
8
BLACK
6
CONTINUOUS
10
118.279
20
-64.0232
11
118.371
21
-64.1306
0
LINE
8
BLACK
6
CONTINUOUS
10
118.371
20
-64.1306
11
118.43
21
-64.2597
0
LINE
8
BLACK
6
CONTINUOUS
10
118.43
20
-64.2597
11
118.45
21
-64.4
0
LINE
8
BLACK
6
CONTINUOUS
10
118.45
20
-64.4
11
118.45
21
-64.9
0
LINE
8
BLACK
6
CONTINUOUS
10
118.45
20
-64.9
11
118.45
21
-64.9122
0
LINE
8
BLACK
6
CONTINUOUS
10
118.45
20
-64.9122
11
118.426
21
-65.052
0
LINE
8
BLACK
6
CONTINUOUS
10
118.426
20
-65.052
11
118.365
21
-65.1796
0
LINE
8
BLACK
6
CONTINUOUS
10
118.365
20
-65.1796
11
118.269
21
-65.2847
0
LINE
8
BLACK
6
CONTINUOUS
10
118.269
20
-65.2847
11
118.149
21
-65.3589
0
LINE
8
BLACK
6
CONTINUOUS
10
118.149
20
-65.3589
11
118.012
21
-65.3962
0
LINE
8
BLACK
6
CONTINUOUS
10
118.012
20
-65.3962
11
117.95
21
-65.395
0
LINE
8
BLACK
6
CONTINUOUS
10
117.95
20
-65.395
11
117.95
21
-65.4
0
LINE
8
BLACK
6
CONTINUOUS
10
117.95
20
-65.4
11
117.4
21
-65.4
0
LINE
8
BLACK
6
CONTINUOUS
10
117.4
20
-65.4
11
117.4
21
-63.9
0
LINE
8
BLACK
6
CONTINUOUS
10
117.4
20
-63.9
11
117.95
21
-63.9
0
LINE
8
BLACK
6
CONTINUOUS
10
117.95
20
-63.9
11
117.95
21
-63.905
0
LINE
8
BLACK
6
CONTINUOUS
10
117.15
20
-65.4
11
116.15
21
-65.4
0
LINE
8
BLACK
6
CONTINUOUS
10
116.15
20
-65.4
11
116.15
21
-63.9
0
LINE
8
BLACK
6
CONTINUOUS
10
116.15
20
-63.9
11
117.15
21
-63.9
0
LINE
8
BLACK
6
CONTINUOUS
10
117.15
20
-63.9
11
117.15
21
-65.4
0
LINE
8
BLACK
6
CONTINUOUS
10
115.9
20
-65.4
11
115.35
21
-65.4
0
LINE
8
BLACK
6
CONTINUOUS
10
115.35
20
-65.4
11
115.35
21
-65.395
0
LINE
8
BLACK
6
CONTINUOUS
10
115.35
20
-65.395
11
115.27
21
-65.3936
0
LINE
8
BLACK
6
CONTINUOUS
10
115.27
20
-65.3936
11
115.135
21
-65.3513
0
LINE
8
BLACK
6
CONTINUOUS
10
115.135
20
-65.3513
11
115.017
21
-65.2727
0
LINE
8
BLACK
6
CONTINUOUS
10
115.017
20
-65.2727
11
114.926
21
-65.1642
0
LINE
8
BLACK
6
CONTINUOUS
10
114.926
20
-65.1642
11
114.868
21
-65.0345
0
LINE
8
BLACK
6
CONTINUOUS
10
114.868
20
-65.0345
11
114.851
21
-64.9
0
LINE
8
BLACK
6
CONTINUOUS
10
114.851
20
-64.9
11
114.85
21
-64.9
0
LINE
8
BLACK
6
CONTINUOUS
10
114.85
20
-64.9
11
114.85
21
-64.4
0
LINE
8
BLACK
6
CONTINUOUS
10
114.85
20
-64.4
11
114.851
21
-64.4
0
LINE
8
BLACK
6
CONTINUOUS
10
114.851
20
-64.4
11
114.85
21
-64.3939
0
LINE
8
BLACK
6
CONTINUOUS
10
114.85
20
-64.3939
11
114.872
21
-64.2538
0
LINE
8
BLACK
6
CONTINUOUS
10
114.872
20
-64.2538
11
114.932
21
-64.1255
0
LINE
8
BLACK
6
CONTINUOUS
10
114.932
20
-64.1255
11
115.026
21
-64.0192
0
LINE
8
BLACK
6
CONTINUOUS
10
115.026
20
-64.0192
11
115.146
21
-63.9436
0
LINE
8
BLACK
6
CONTINUOUS
10
115.146
20
-63.9436
11
115.282
21
-63.9046
0
LINE
8
BLACK
6
CONTINUOUS
10
115.282
20
-63.9046
11
115.35
21
-63.905
0
LINE
8
BLACK
6
CONTINUOUS
10
115.35
20
-63.905
11
115.35
21
-63.9
0
LINE
8
BLACK
6
CONTINUOUS
10
115.35
20
-63.9
11
115.9
21
-63.9
0
LINE
8
BLACK
6
CONTINUOUS
10
115.9
20
-63.9
11
115.9
21
-65.4
0
LINE
8
BLACK
6
CONTINUOUS
10
124.108
20
-63.3217
11
124.24
21
-63.3714
0
LINE
8
BLACK
6
CONTINUOUS
10
124.24
20
-63.3714
11
124.354
21
-63.4564
0
LINE
8
BLACK
6
CONTINUOUS
10
124.354
20
-63.4564
11
124.439
21
-63.5697
0
LINE
8
BLACK
6
CONTINUOUS
10
124.439
20
-63.5697
11
124.488
21
-63.7024
0
LINE
8
BLACK
6
CONTINUOUS
10
124.488
20
-63.7024
11
124.5
21
-63.8097
0
LINE
8
BLACK
6
CONTINUOUS
10
124.5
20
-63.8097
11
124.5
21
-64.7103
0
LINE
8
BLACK
6
CONTINUOUS
10
124.5
20
-64.7103
11
124.488
21
-64.8176
0
LINE
8
BLACK
6
CONTINUOUS
10
124.488
20
-64.8176
11
124.439
21
-64.9503
0
LINE
8
BLACK
6
CONTINUOUS
10
124.439
20
-64.9503
11
124.354
21
-65.0636
0
LINE
8
BLACK
6
CONTINUOUS
10
124.354
20
-65.0636
11
124.24
21
-65.1486
0
LINE
8
BLACK
6
CONTINUOUS
10
124.24
20
-65.1486
11
124.108
21
-65.1983
0
LINE
8
BLACK
6
CONTINUOUS
10
124.108
20
-65.1983
11
124
21
-65.21
0
LINE
8
BLACK
6
CONTINUOUS
10
124
20
-65.21
11
123.1
21
-65.21
0
LINE
8
BLACK
6
CONTINUOUS
10
123.1
20
-65.21
11
122.992
21
-65.1983
0
LINE
8
BLACK
6
CONTINUOUS
10
122.992
20
-65.1983
11
122.86
21
-65.1486
0
LINE
8
BLACK
6
CONTINUOUS
10
122.86
20
-65.1486
11
122.746
21
-65.0636
0
LINE
8
BLACK
6
CONTINUOUS
10
122.746
20
-65.0636
11
122.661
21
-64.9503
0
LINE
8
BLACK
6
CONTINUOUS
10
122.661
20
-64.9503
11
122.612
21
-64.8176
0
LINE
8
BLACK
6
CONTINUOUS
10
122.612
20
-64.8176
11
122.6
21
-64.7103
0
LINE
8
BLACK
6
CONTINUOUS
10
122.6
20
-64.7103
11
122.6
21
-63.8097
0
LINE
8
BLACK
6
CONTINUOUS
10
122.6
20
-63.8097
11
122.612
21
-63.7024
0
LINE
8
BLACK
6
CONTINUOUS
10
122.612
20
-63.7024
11
122.661
21
-63.5697
0
LINE
8
BLACK
6
CONTINUOUS
10
122.661
20
-63.5697
11
122.746
21
-63.4564
0
LINE
8
BLACK
6
CONTINUOUS
10
122.746
20
-63.4564
11
122.86
21
-63.3714
0
LINE
8
BLACK
6
CONTINUOUS
10
122.86
20
-63.3714
11
122.992
21
-63.3217
0
LINE
8
BLACK
6
CONTINUOUS
10
122.992
20
-63.3217
11
123.1
21
-63.31
0
LINE
8
BLACK
6
CONTINUOUS
10
123.1
20
-63.31
11
124
21
-63.31
0
LINE
8
BLACK
6
CONTINUOUS
10
124
20
-63.31
11
124.108
21
-63.3217
0
LINE
8
BLACK
6
CONTINUOUS
10
121.008
20
-63.3217
11
121.14
21
-63.3714
0
LINE
8
BLACK
6
CONTINUOUS
10
121.14
20
-63.3714
11
121.254
21
-63.4564
0
LINE
8
BLACK
6
CONTINUOUS
10
121.254
20
-63.4564
11
121.339
21
-63.5697
0
LINE
8
BLACK
6
CONTINUOUS
10
121.339
20
-63.5697
11
121.388
21
-63.7024
0
LINE
8
BLACK
6
CONTINUOUS
10
121.388
20
-63.7024
11
121.4
21
-63.8097
0
LINE
8
BLACK
6
CONTINUOUS
10
121.4
20
-63.8097
11
121.4
21
-64.7103
0
LINE
8
BLACK
6
CONTINUOUS
10
121.4
20
-64.7103
11
121.388
21
-64.8176
0
LINE
8
BLACK
6
CONTINUOUS
10
121.388
20
-64.8176
11
121.339
21
-64.9503
0
LINE
8
BLACK
6
CONTINUOUS
10
121.339
20
-64.9503
11
121.254
21
-65.0636
0
LINE
8
BLACK
6
CONTINUOUS
10
121.254
20
-65.0636
11
121.14
21
-65.1486
0
LINE
8
BLACK
6
CONTINUOUS
10
121.14
20
-65.1486
11
121.008
21
-65.1983
0
LINE
8
BLACK
6
CONTINUOUS
10
121.008
20
-65.1983
11
120.9
21
-65.21
0
LINE
8
BLACK
6
CONTINUOUS
10
120.9
20
-65.21
11
120
21
-65.21
0
LINE
8
BLACK
6
CONTINUOUS
10
120
20
-65.21
11
119.892
21
-65.1983
0
LINE
8
BLACK
6
CONTINUOUS
10
119.892
20
-65.1983
11
119.76
21
-65.1486
0
LINE
8
BLACK
6
CONTINUOUS
10
119.76
20
-65.1486
11
119.646
21
-65.0636
0
LINE
8
BLACK
6
CONTINUOUS
10
119.646
20
-65.0636
11
119.561
21
-64.9503
0
LINE
8
BLACK
6
CONTINUOUS
10
119.561
20
-64.9503
11
119.512
21
-64.8176
0
LINE
8
BLACK
6
CONTINUOUS
10
119.512
20
-64.8176
11
119.5
21
-64.7103
0
LINE
8
BLACK
6
CONTINUOUS
10
119.5
20
-64.7103
11
119.5
21
-63.8097
0
LINE
8
BLACK
6
CONTINUOUS
10
119.5
20
-63.8097
11
119.512
21
-63.7024
0
LINE
8
BLACK
6
CONTINUOUS
10
119.512
20
-63.7024
11
119.561
21
-63.5697
0
LINE
8
BLACK
6
CONTINUOUS
10
119.561
20
-63.5697
11
119.646
21
-63.4564
0
LINE
8
BLACK
6
CONTINUOUS
10
119.646
20
-63.4564
11
119.76
21
-63.3714
0
LINE
8
BLACK
6
CONTINUOUS
10
119.76
20
-63.3714
11
119.892
21
-63.3217
0
LINE
8
BLACK
6
CONTINUOUS
10
119.892
20
-63.3217
11
120
21
-63.31
0
LINE
8
BLACK
6
CONTINUOUS
10
120
20
-63.31
11
120.9
21
-63.31
0
LINE
8
BLACK
6
CONTINUOUS
10
120.9
20
-63.31
11
121.008
21
-63.3217
0
LINE
8
BLACK
6
CONTINUOUS
10
108.308
20
-63.3217
11
108.44
21
-63.3714
0
LINE
8
BLACK
6
CONTINUOUS
10
108.44
20
-63.3714
11
108.554
21
-63.4564
0
LINE
8
BLACK
6
CONTINUOUS
10
108.554
20
-63.4564
11
108.639
21
-63.5697
0
LINE
8
BLACK
6
CONTINUOUS
10
108.639
20
-63.5697
11
108.688
21
-63.7024
0
LINE
8
BLACK
6
CONTINUOUS
10
108.688
20
-63.7024
11
108.7
21
-63.8097
0
LINE
8
BLACK
6
CONTINUOUS
10
108.7
20
-63.8097
11
108.7
21
-64.7103
0
LINE
8
BLACK
6
CONTINUOUS
10
108.7
20
-64.7103
11
108.688
21
-64.8176
0
LINE
8
BLACK
6
CONTINUOUS
10
108.688
20
-64.8176
11
108.639
21
-64.9503
0
LINE
8
BLACK
6
CONTINUOUS
10
108.639
20
-64.9503
11
108.554
21
-65.0636
0
LINE
8
BLACK
6
CONTINUOUS
10
108.554
20
-65.0636
11
108.44
21
-65.1486
0
LINE
8
BLACK
6
CONTINUOUS
10
108.44
20
-65.1486
11
108.308
21
-65.1983
0
LINE
8
BLACK
6
CONTINUOUS
10
108.308
20
-65.1983
11
108.2
21
-65.21
0
LINE
8
BLACK
6
CONTINUOUS
10
108.2
20
-65.21
11
107.3
21
-65.21
0
LINE
8
BLACK
6
CONTINUOUS
10
107.3
20
-65.21
11
107.192
21
-65.1983
0
LINE
8
BLACK
6
CONTINUOUS
10
107.192
20
-65.1983
11
107.06
21
-65.1486
0
LINE
8
BLACK
6
CONTINUOUS
10
107.06
20
-65.1486
11
106.946
21
-65.0636
0
LINE
8
BLACK
6
CONTINUOUS
10
106.946
20
-65.0636
11
106.861
21
-64.9503
0
LINE
8
BLACK
6
CONTINUOUS
10
106.861
20
-64.9503
11
106.812
21
-64.8176
0
LINE
8
BLACK
6
CONTINUOUS
10
106.812
20
-64.8176
11
106.8
21
-64.7103
0
LINE
8
BLACK
6
CONTINUOUS
10
106.8
20
-64.7103
11
106.8
21
-63.8097
0
LINE
8
BLACK
6
CONTINUOUS
10
106.8
20
-63.8097
11
106.812
21
-63.7024
0
LINE
8
BLACK
6
CONTINUOUS
10
106.812
20
-63.7024
11
106.861
21
-63.5697
0
LINE
8
BLACK
6
CONTINUOUS
10
106.861
20
-63.5697
11
106.946
21
-63.4564
0
LINE
8
BLACK
6
CONTINUOUS
10
106.946
20
-63.4564
11
107.06
21
-63.3714
0
LINE
8
BLACK
6
CONTINUOUS
10
107.06
20
-63.3714
11
107.192
21
-63.3217
0
LINE
8
BLACK
6
CONTINUOUS
10
107.192
20
-63.3217
11
107.3
21
-63.31
0
LINE
8
BLACK
6
CONTINUOUS
10
107.3
20
-63.31
11
108.2
21
-63.31
0
LINE
8
BLACK
6
CONTINUOUS
10
108.2
20
-63.31
11
108.308
21
-63.3217
0
LINE
8
BLACK
6
CONTINUOUS
10
136.808
20
-63.3217
11
136.94
21
-63.3714
0
LINE
8
BLACK
6
CONTINUOUS
10
136.94
20
-63.3714
11
137.054
21
-63.4564
0
LINE
8
BLACK
6
CONTINUOUS
10
137.054
20
-63.4564
11
137.139
21
-63.5697
0
LINE
8
BLACK
6
CONTINUOUS
10
137.139
20
-63.5697
11
137.188
21
-63.7024
0
LINE
8
BLACK
6
CONTINUOUS
10
137.188
20
-63.7024
11
137.2
21
-63.8097
0
LINE
8
BLACK
6
CONTINUOUS
10
137.2
20
-63.8097
11
137.2
21
-64.7103
0
LINE
8
BLACK
6
CONTINUOUS
10
137.2
20
-64.7103
11
137.188
21
-64.8176
0
LINE
8
BLACK
6
CONTINUOUS
10
137.188
20
-64.8176
11
137.139
21
-64.9503
0
LINE
8
BLACK
6
CONTINUOUS
10
137.139
20
-64.9503
11
137.054
21
-65.0636
0
LINE
8
BLACK
6
CONTINUOUS
10
137.054
20
-65.0636
11
136.94
21
-65.1486
0
LINE
8
BLACK
6
CONTINUOUS
10
136.94
20
-65.1486
11
136.808
21
-65.1983
0
LINE
8
BLACK
6
CONTINUOUS
10
136.808
20
-65.1983
11
136.7
21
-65.21
0
LINE
8
BLACK
6
CONTINUOUS
10
136.7
20
-65.21
11
135.8
21
-65.21
0
LINE
8
BLACK
6
CONTINUOUS
10
135.8
20
-65.21
11
135.692
21
-65.1983
0
LINE
8
BLACK
6
CONTINUOUS
10
135.692
20
-65.1983
11
135.56
21
-65.1486
0
LINE
8
BLACK
6
CONTINUOUS
10
135.56
20
-65.1486
11
135.446
21
-65.0636
0
LINE
8
BLACK
6
CONTINUOUS
10
135.446
20
-65.0636
11
135.361
21
-64.9503
0
LINE
8
BLACK
6
CONTINUOUS
10
135.361
20
-64.9503
11
135.312
21
-64.8176
0
LINE
8
BLACK
6
CONTINUOUS
10
135.312
20
-64.8176
11
135.3
21
-64.7103
0
LINE
8
BLACK
6
CONTINUOUS
10
135.3
20
-64.7103
11
135.3
21
-63.8097
0
LINE
8
BLACK
6
CONTINUOUS
10
135.3
20
-63.8097
11
135.312
21
-63.7024
0
LINE
8
BLACK
6
CONTINUOUS
10
135.312
20
-63.7024
11
135.361
21
-63.5697
0
LINE
8
BLACK
6
CONTINUOUS
10
135.361
20
-63.5697
11
135.446
21
-63.4564
0
LINE
8
BLACK
6
CONTINUOUS
10
135.446
20
-63.4564
11
135.56
21
-63.3714
0
LINE
8
BLACK
6
CONTINUOUS
10
135.56
20
-63.3714
11
135.692
21
-63.3217
0
LINE
8
BLACK
6
CONTINUOUS
10
135.692
20
-63.3217
11
135.8
21
-63.31
0
LINE
8
BLACK
6
CONTINUOUS
10
135.8
20
-63.31
11
136.7
21
-63.31
0
LINE
8
BLACK
6
CONTINUOUS
10
136.7
20
-63.31
11
136.808
21
-63.3217
0
LINE
8
BLACK
6
CONTINUOUS
10
142.346
20
-63.519
11
142.427
21
-63.5732
0
LINE
8
BLACK
6
CONTINUOUS
10
142.427
20
-63.5732
11
142.481
21
-63.6543
0
LINE
8
BLACK
6
CONTINUOUS
10
142.481
20
-63.6543
11
142.5
21
-63.75
0
LINE
8
BLACK
6
CONTINUOUS
10
142.5
20
-63.75
11
142.5
21
-64.95
0
LINE
8
BLACK
6
CONTINUOUS
10
142.5
20
-64.95
11
142.481
21
-65.0457
0
LINE
8
BLACK
6
CONTINUOUS
10
142.481
20
-65.0457
11
142.427
21
-65.1268
0
LINE
8
BLACK
6
CONTINUOUS
10
142.427
20
-65.1268
11
142.346
21
-65.181
0
LINE
8
BLACK
6
CONTINUOUS
10
142.346
20
-65.181
11
142.25
21
-65.2
0
LINE
8
BLACK
6
CONTINUOUS
10
142.25
20
-65.2
11
140.8
21
-65.2
0
LINE
8
BLACK
6
CONTINUOUS
10
140.8
20
-65.2
11
140.704
21
-65.181
0
LINE
8
BLACK
6
CONTINUOUS
10
140.704
20
-65.181
11
140.623
21
-65.1268
0
LINE
8
BLACK
6
CONTINUOUS
10
140.623
20
-65.1268
11
140.569
21
-65.0457
0
LINE
8
BLACK
6
CONTINUOUS
10
140.569
20
-65.0457
11
140.55
21
-64.95
0
LINE
8
BLACK
6
CONTINUOUS
10
140.55
20
-64.95
11
140.55
21
-63.75
0
LINE
8
BLACK
6
CONTINUOUS
10
140.55
20
-63.75
11
140.569
21
-63.6543
0
LINE
8
BLACK
6
CONTINUOUS
10
140.569
20
-63.6543
11
140.623
21
-63.5732
0
LINE
8
BLACK
6
CONTINUOUS
10
140.623
20
-63.5732
11
140.704
21
-63.519
0
LINE
8
BLACK
6
CONTINUOUS
10
140.704
20
-63.519
11
140.8
21
-63.5
0
LINE
8
BLACK
6
CONTINUOUS
10
140.8
20
-63.5
11
142.25
21
-63.5
0
LINE
8
BLACK
6
CONTINUOUS
10
142.25
20
-63.5
11
142.346
21
-63.519
0
LINE
8
BLACK
6
CONTINUOUS
10
102.695
20
-62.9053
11
102.874
21
-62.9453
0
LINE
8
BLACK
6
CONTINUOUS
10
102.874
20
-62.9453
11
103.04
21
-63.0229
0
LINE
8
BLACK
6
CONTINUOUS
10
103.04
20
-63.0229
11
103.186
21
-63.1345
0
LINE
8
BLACK
6
CONTINUOUS
10
103.186
20
-63.1345
11
103.305
21
-63.2747
0
LINE
8
BLACK
6
CONTINUOUS
10
103.305
20
-63.2747
11
103.39
21
-63.4371
0
LINE
8
BLACK
6
CONTINUOUS
10
103.39
20
-63.4371
11
103.439
21
-63.6141
0
LINE
8
BLACK
6
CONTINUOUS
10
103.439
20
-63.6141
11
103.449
21
-63.7974
0
LINE
8
BLACK
6
CONTINUOUS
10
103.449
20
-63.7974
11
103.419
21
-63.9786
0
LINE
8
BLACK
6
CONTINUOUS
10
103.419
20
-63.9786
11
103.351
21
-64.1491
0
LINE
8
BLACK
6
CONTINUOUS
10
103.351
20
-64.1491
11
103.247
21
-64.3009
0
LINE
8
BLACK
6
CONTINUOUS
10
103.247
20
-64.3009
11
103.114
21
-64.4271
0
LINE
8
BLACK
6
CONTINUOUS
10
103.114
20
-64.4271
11
102.957
21
-64.5216
0
LINE
8
BLACK
6
CONTINUOUS
10
102.957
20
-64.5216
11
102.783
21
-64.5802
0
LINE
8
BLACK
6
CONTINUOUS
10
102.783
20
-64.5802
11
102.6
21
-64.6
0
LINE
8
BLACK
6
CONTINUOUS
10
102.6
20
-64.6
11
102.35
21
-64.6
0
LINE
8
BLACK
6
CONTINUOUS
10
102.35
20
-64.6
11
102.255
21
-64.5947
0
LINE
8
BLACK
6
CONTINUOUS
10
102.255
20
-64.5947
11
102.076
21
-64.5547
0
LINE
8
BLACK
6
CONTINUOUS
10
102.076
20
-64.5547
11
101.91
21
-64.4771
0
LINE
8
BLACK
6
CONTINUOUS
10
101.91
20
-64.4771
11
101.764
21
-64.3655
0
LINE
8
BLACK
6
CONTINUOUS
10
101.764
20
-64.3655
11
101.645
21
-64.2253
0
LINE
8
BLACK
6
CONTINUOUS
10
101.645
20
-64.2253
11
101.56
21
-64.0629
0
LINE
8
BLACK
6
CONTINUOUS
10
101.56
20
-64.0629
11
101.511
21
-63.8859
0
LINE
8
BLACK
6
CONTINUOUS
10
101.511
20
-63.8859
11
101.501
21
-63.7026
0
LINE
8
BLACK
6
CONTINUOUS
10
101.501
20
-63.7026
11
101.531
21
-63.5214
0
LINE
8
BLACK
6
CONTINUOUS
10
101.531
20
-63.5214
11
101.599
21
-63.3509
0
LINE
8
BLACK
6
CONTINUOUS
10
101.599
20
-63.3509
11
101.703
21
-63.1991
0
LINE
8
BLACK
6
CONTINUOUS
10
101.703
20
-63.1991
11
101.836
21
-63.073
0
LINE
8
BLACK
6
CONTINUOUS
10
101.836
20
-63.073
11
101.993
21
-62.9784
0
LINE
8
BLACK
6
CONTINUOUS
10
101.993
20
-62.9784
11
102.167
21
-62.9198
0
LINE
8
BLACK
6
CONTINUOUS
10
102.167
20
-62.9198
11
102.35
21
-62.9
0
LINE
8
BLACK
6
CONTINUOUS
10
102.35
20
-62.9
11
102.6
21
-62.9
0
LINE
8
BLACK
6
CONTINUOUS
10
102.6
20
-62.9
11
102.695
21
-62.9053
0
LINE
8
BLACK
6
CONTINUOUS
10
127
20
-63.55
11
126.995
21
-63.55
0
LINE
8
BLACK
6
CONTINUOUS
10
126.995
20
-63.55
11
126.995
21
-63.6239
0
LINE
8
BLACK
6
CONTINUOUS
10
126.995
20
-63.6239
11
126.954
21
-63.7597
0
LINE
8
BLACK
6
CONTINUOUS
10
126.954
20
-63.7597
11
126.877
21
-63.8787
0
LINE
8
BLACK
6
CONTINUOUS
10
126.877
20
-63.8787
11
126.769
21
-63.9712
0
LINE
8
BLACK
6
CONTINUOUS
10
126.769
20
-63.9712
11
126.64
21
-64.0299
0
LINE
8
BLACK
6
CONTINUOUS
10
126.64
20
-64.0299
11
126.5
21
-64.05
0
LINE
8
BLACK
6
CONTINUOUS
10
126.5
20
-64.05
11
126
21
-64.05
0
LINE
8
BLACK
6
CONTINUOUS
10
126
20
-64.05
11
125.988
21
-64.0499
0
LINE
8
BLACK
6
CONTINUOUS
10
125.988
20
-64.0499
11
125.848
21
-64.0263
0
LINE
8
BLACK
6
CONTINUOUS
10
125.848
20
-64.0263
11
125.72
21
-63.9645
0
LINE
8
BLACK
6
CONTINUOUS
10
125.72
20
-63.9645
11
125.615
21
-63.8694
0
LINE
8
BLACK
6
CONTINUOUS
10
125.615
20
-63.8694
11
125.541
21
-63.7486
0
LINE
8
BLACK
6
CONTINUOUS
10
125.541
20
-63.7486
11
125.504
21
-63.6118
0
LINE
8
BLACK
6
CONTINUOUS
10
125.504
20
-63.6118
11
125.505
21
-63.55
0
LINE
8
BLACK
6
CONTINUOUS
10
125.505
20
-63.55
11
125.5
21
-63.55
0
LINE
8
BLACK
6
CONTINUOUS
10
125.5
20
-63.55
11
125.5
21
-63
0
LINE
8
BLACK
6
CONTINUOUS
10
125.5
20
-63
11
127
21
-63
0
LINE
8
BLACK
6
CONTINUOUS
10
127
20
-63
11
127
21
-63.55
0
LINE
8
BLACK
6
CONTINUOUS
10
117.95
20
-61.405
11
118.024
21
-61.4055
0
LINE
8
BLACK
6
CONTINUOUS
10
118.024
20
-61.4055
11
118.16
21
-61.4461
0
LINE
8
BLACK
6
CONTINUOUS
10
118.16
20
-61.4461
11
118.279
21
-61.5232
0
LINE
8
BLACK
6
CONTINUOUS
10
118.279
20
-61.5232
11
118.371
21
-61.6306
0
LINE
8
BLACK
6
CONTINUOUS
10
118.371
20
-61.6306
11
118.43
21
-61.7597
0
LINE
8
BLACK
6
CONTINUOUS
10
118.43
20
-61.7597
11
118.45
21
-61.9
0
LINE
8
BLACK
6
CONTINUOUS
10
118.45
20
-61.9
11
118.45
21
-62.4
0
LINE
8
BLACK
6
CONTINUOUS
10
118.45
20
-62.4
11
118.45
21
-62.4122
0
LINE
8
BLACK
6
CONTINUOUS
10
118.45
20
-62.4122
11
118.426
21
-62.552
0
LINE
8
BLACK
6
CONTINUOUS
10
118.426
20
-62.552
11
118.365
21
-62.6796
0
LINE
8
BLACK
6
CONTINUOUS
10
118.365
20
-62.6796
11
118.269
21
-62.7847
0
LINE
8
BLACK
6
CONTINUOUS
10
118.269
20
-62.7847
11
118.149
21
-62.8589
0
LINE
8
BLACK
6
CONTINUOUS
10
118.149
20
-62.8589
11
118.012
21
-62.8962
0
LINE
8
BLACK
6
CONTINUOUS
10
118.012
20
-62.8962
11
117.95
21
-62.895
0
LINE
8
BLACK
6
CONTINUOUS
10
117.95
20
-62.895
11
117.95
21
-62.9
0
LINE
8
BLACK
6
CONTINUOUS
10
117.95
20
-62.9
11
117.4
21
-62.9
0
LINE
8
BLACK
6
CONTINUOUS
10
117.4
20
-62.9
11
117.4
21
-61.4
0
LINE
8
BLACK
6
CONTINUOUS
10
117.4
20
-61.4
11
117.95
21
-61.4
0
LINE
8
BLACK
6
CONTINUOUS
10
117.95
20
-61.4
11
117.95
21
-61.405
0
LINE
8
BLACK
6
CONTINUOUS
10
115.9
20
-62.9
11
115.35
21
-62.9
0
LINE
8
BLACK
6
CONTINUOUS
10
115.35
20
-62.9
11
115.35
21
-62.895
0
LINE
8
BLACK
6
CONTINUOUS
10
115.35
20
-62.895
11
115.27
21
-62.8936
0
LINE
8
BLACK
6
CONTINUOUS
10
115.27
20
-62.8936
11
115.135
21
-62.8513
0
LINE
8
BLACK
6
CONTINUOUS
10
115.135
20
-62.8513
11
115.017
21
-62.7727
0
LINE
8
BLACK
6
CONTINUOUS
10
115.017
20
-62.7727
11
114.926
21
-62.6642
0
LINE
8
BLACK
6
CONTINUOUS
10
114.926
20
-62.6642
11
114.868
21
-62.5345
0
LINE
8
BLACK
6
CONTINUOUS
10
114.868
20
-62.5345
11
114.851
21
-62.4
0
LINE
8
BLACK
6
CONTINUOUS
10
114.851
20
-62.4
11
114.85
21
-62.4
0
LINE
8
BLACK
6
CONTINUOUS
10
114.85
20
-62.4
11
114.85
21
-61.9
0
LINE
8
BLACK
6
CONTINUOUS
10
114.85
20
-61.9
11
114.851
21
-61.9
0
LINE
8
BLACK
6
CONTINUOUS
10
114.851
20
-61.9
11
114.85
21
-61.8939
0
LINE
8
BLACK
6
CONTINUOUS
10
114.85
20
-61.8939
11
114.872
21
-61.7538
0
LINE
8
BLACK
6
CONTINUOUS
10
114.872
20
-61.7538
11
114.932
21
-61.6255
0
LINE
8
BLACK
6
CONTINUOUS
10
114.932
20
-61.6255
11
115.026
21
-61.5192
0
LINE
8
BLACK
6
CONTINUOUS
10
115.026
20
-61.5192
11
115.146
21
-61.4436
0
LINE
8
BLACK
6
CONTINUOUS
10
115.146
20
-61.4436
11
115.282
21
-61.4046
0
LINE
8
BLACK
6
CONTINUOUS
10
115.282
20
-61.4046
11
115.35
21
-61.405
0
LINE
8
BLACK
6
CONTINUOUS
10
115.35
20
-61.405
11
115.35
21
-61.4
0
LINE
8
BLACK
6
CONTINUOUS
10
115.35
20
-61.4
11
115.9
21
-61.4
0
LINE
8
BLACK
6
CONTINUOUS
10
115.9
20
-61.4
11
115.9
21
-62.9
0
LINE
8
BLACK
6
CONTINUOUS
10
117.15
20
-62.9
11
116.15
21
-62.9
0
LINE
8
BLACK
6
CONTINUOUS
10
116.15
20
-62.9
11
116.15
21
-61.4
0
LINE
8
BLACK
6
CONTINUOUS
10
116.15
20
-61.4
11
117.15
21
-61.4
0
LINE
8
BLACK
6
CONTINUOUS
10
117.15
20
-61.4
11
117.15
21
-62.9
0
LINE
8
BLACK
6
CONTINUOUS
10
127
20
-62.75
11
125.5
21
-62.75
0
LINE
8
BLACK
6
CONTINUOUS
10
125.5
20
-62.75
11
125.5
21
-61.75
0
LINE
8
BLACK
6
CONTINUOUS
10
125.5
20
-61.75
11
127
21
-61.75
0
LINE
8
BLACK
6
CONTINUOUS
10
127
20
-61.75
11
127
21
-62.75
0
LINE
8
BLACK
6
CONTINUOUS
10
124.108
20
-60.7817
11
124.24
21
-60.8314
0
LINE
8
BLACK
6
CONTINUOUS
10
124.24
20
-60.8314
11
124.354
21
-60.9164
0
LINE
8
BLACK
6
CONTINUOUS
10
124.354
20
-60.9164
11
124.439
21
-61.0297
0
LINE
8
BLACK
6
CONTINUOUS
10
124.439
20
-61.0297
11
124.488
21
-61.1624
0
LINE
8
BLACK
6
CONTINUOUS
10
124.488
20
-61.1624
11
124.5
21
-61.2697
0
LINE
8
BLACK
6
CONTINUOUS
10
124.5
20
-61.2697
11
124.5
21
-62.1703
0
LINE
8
BLACK
6
CONTINUOUS
10
124.5
20
-62.1703
11
124.488
21
-62.2776
0
LINE
8
BLACK
6
CONTINUOUS
10
124.488
20
-62.2776
11
124.439
21
-62.4103
0
LINE
8
BLACK
6
CONTINUOUS
10
124.439
20
-62.4103
11
124.354
21
-62.5236
0
LINE
8
BLACK
6
CONTINUOUS
10
124.354
20
-62.5236
11
124.24
21
-62.6086
0
LINE
8
BLACK
6
CONTINUOUS
10
124.24
20
-62.6086
11
124.108
21
-62.6583
0
LINE
8
BLACK
6
CONTINUOUS
10
124.108
20
-62.6583
11
124
21
-62.67
0
LINE
8
BLACK
6
CONTINUOUS
10
124
20
-62.67
11
123.1
21
-62.67
0
LINE
8
BLACK
6
CONTINUOUS
10
123.1
20
-62.67
11
122.992
21
-62.6583
0
LINE
8
BLACK
6
CONTINUOUS
10
122.992
20
-62.6583
11
122.86
21
-62.6086
0
LINE
8
BLACK
6
CONTINUOUS
10
122.86
20
-62.6086
11
122.746
21
-62.5236
0
LINE
8
BLACK
6
CONTINUOUS
10
122.746
20
-62.5236
11
122.661
21
-62.4103
0
LINE
8
BLACK
6
CONTINUOUS
10
122.661
20
-62.4103
11
122.612
21
-62.2776
0
LINE
8
BLACK
6
CONTINUOUS
10
122.612
20
-62.2776
11
122.6
21
-62.1703
0
LINE
8
BLACK
6
CONTINUOUS
10
122.6
20
-62.1703
11
122.6
21
-61.2697
0
LINE
8
BLACK
6
CONTINUOUS
10
122.6
20
-61.2697
11
122.612
21
-61.1624
0
LINE
8
BLACK
6
CONTINUOUS
10
122.612
20
-61.1624
11
122.661
21
-61.0297
0
LINE
8
BLACK
6
CONTINUOUS
10
122.661
20
-61.0297
11
122.746
21
-60.9164
0
LINE
8
BLACK
6
CONTINUOUS
10
122.746
20
-60.9164
11
122.86
21
-60.8314
0
LINE
8
BLACK
6
CONTINUOUS
10
122.86
20
-60.8314
11
122.992
21
-60.7817
0
LINE
8
BLACK
6
CONTINUOUS
10
122.992
20
-60.7817
11
123.1
21
-60.77
0
LINE
8
BLACK
6
CONTINUOUS
10
123.1
20
-60.77
11
124
21
-60.77
0
LINE
8
BLACK
6
CONTINUOUS
10
124
20
-60.77
11
124.108
21
-60.7817
0
LINE
8
BLACK
6
CONTINUOUS
10
121.008
20
-60.7817
11
121.14
21
-60.8314
0
LINE
8
BLACK
6
CONTINUOUS
10
121.14
20
-60.8314
11
121.254
21
-60.9164
0
LINE
8
BLACK
6
CONTINUOUS
10
121.254
20
-60.9164
11
121.339
21
-61.0297
0
LINE
8
BLACK
6
CONTINUOUS
10
121.339
20
-61.0297
11
121.388
21
-61.1624
0
LINE
8
BLACK
6
CONTINUOUS
10
121.388
20
-61.1624
11
121.4
21
-61.2697
0
LINE
8
BLACK
6
CONTINUOUS
10
121.4
20
-61.2697
11
121.4
21
-62.1703
0
LINE
8
BLACK
6
CONTINUOUS
10
121.4
20
-62.1703
11
121.388
21
-62.2776
0
LINE
8
BLACK
6
CONTINUOUS
10
121.388
20
-62.2776
11
121.339
21
-62.4103
0
LINE
8
BLACK
6
CONTINUOUS
10
121.339
20
-62.4103
11
121.254
21
-62.5236
0
LINE
8
BLACK
6
CONTINUOUS
10
121.254
20
-62.5236
11
121.14
21
-62.6086
0
LINE
8
BLACK
6
CONTINUOUS
10
121.14
20
-62.6086
11
121.008
21
-62.6583
0
LINE
8
BLACK
6
CONTINUOUS
10
121.008
20
-62.6583
11
120.9
21
-62.67
0
LINE
8
BLACK
6
CONTINUOUS
10
120.9
20
-62.67
11
120
21
-62.67
0
LINE
8
BLACK
6
CONTINUOUS
10
120
20
-62.67
11
119.892
21
-62.6583
0
LINE
8
BLACK
6
CONTINUOUS
10
119.892
20
-62.6583
11
119.76
21
-62.6086
0
LINE
8
BLACK
6
CONTINUOUS
10
119.76
20
-62.6086
11
119.646
21
-62.5236
0
LINE
8
BLACK
6
CONTINUOUS
10
119.646
20
-62.5236
11
119.561
21
-62.4103
0
LINE
8
BLACK
6
CONTINUOUS
10
119.561
20
-62.4103
11
119.512
21
-62.2776
0
LINE
8
BLACK
6
CONTINUOUS
10
119.512
20
-62.2776
11
119.5
21
-62.1703
0
LINE
8
BLACK
6
CONTINUOUS
10
119.5
20
-62.1703
11
119.5
21
-61.2697
0
LINE
8
BLACK
6
CONTINUOUS
10
119.5
20
-61.2697
11
119.512
21
-61.1624
0
LINE
8
BLACK
6
CONTINUOUS
10
119.512
20
-61.1624
11
119.561
21
-61.0297
0
LINE
8
BLACK
6
CONTINUOUS
10
119.561
20
-61.0297
11
119.646
21
-60.9164
0
LINE
8
BLACK
6
CONTINUOUS
10
119.646
20
-60.9164
11
119.76
21
-60.8314
0
LINE
8
BLACK
6
CONTINUOUS
10
119.76
20
-60.8314
11
119.892
21
-60.7817
0
LINE
8
BLACK
6
CONTINUOUS
10
119.892
20
-60.7817
11
120
21
-60.77
0
LINE
8
BLACK
6
CONTINUOUS
10
120
20
-60.77
11
120.9
21
-60.77
0
LINE
8
BLACK
6
CONTINUOUS
10
120.9
20
-60.77
11
121.008
21
-60.7817
0
LINE
8
BLACK
6
CONTINUOUS
10
108.308
20
-60.7817
11
108.44
21
-60.8314
0
LINE
8
BLACK
6
CONTINUOUS
10
108.44
20
-60.8314
11
108.554
21
-60.9164
0
LINE
8
BLACK
6
CONTINUOUS
10
108.554
20
-60.9164
11
108.639
21
-61.0297
0
LINE
8
BLACK
6
CONTINUOUS
10
108.639
20
-61.0297
11
108.688
21
-61.1624
0
LINE
8
BLACK
6
CONTINUOUS
10
108.688
20
-61.1624
11
108.7
21
-61.2697
0
LINE
8
BLACK
6
CONTINUOUS
10
108.7
20
-61.2697
11
108.7
21
-62.1703
0
LINE
8
BLACK
6
CONTINUOUS
10
108.7
20
-62.1703
11
108.688
21
-62.2776
0
LINE
8
BLACK
6
CONTINUOUS
10
108.688
20
-62.2776
11
108.639
21
-62.4103
0
LINE
8
BLACK
6
CONTINUOUS
10
108.639
20
-62.4103
11
108.554
21
-62.5236
0
LINE
8
BLACK
6
CONTINUOUS
10
108.554
20
-62.5236
11
108.44
21
-62.6086
0
LINE
8
BLACK
6
CONTINUOUS
10
108.44
20
-62.6086
11
108.308
21
-62.6583
0
LINE
8
BLACK
6
CONTINUOUS
10
108.308
20
-62.6583
11
108.2
21
-62.67
0
LINE
8
BLACK
6
CONTINUOUS
10
108.2
20
-62.67
11
107.3
21
-62.67
0
LINE
8
BLACK
6
CONTINUOUS
10
107.3
20
-62.67
11
107.192
21
-62.6583
0
LINE
8
BLACK
6
CONTINUOUS
10
107.192
20
-62.6583
11
107.06
21
-62.6086
0
LINE
8
BLACK
6
CONTINUOUS
10
107.06
20
-62.6086
11
106.946
21
-62.5236
0
LINE
8
BLACK
6
CONTINUOUS
10
106.946
20
-62.5236
11
106.861
21
-62.4103
0
LINE
8
BLACK
6
CONTINUOUS
10
106.861
20
-62.4103
11
106.812
21
-62.2776
0
LINE
8
BLACK
6
CONTINUOUS
10
106.812
20
-62.2776
11
106.8
21
-62.1703
0
LINE
8
BLACK
6
CONTINUOUS
10
106.8
20
-62.1703
11
106.8
21
-61.2697
0
LINE
8
BLACK
6
CONTINUOUS
10
106.8
20
-61.2697
11
106.812
21
-61.1624
0
LINE
8
BLACK
6
CONTINUOUS
10
106.812
20
-61.1624
11
106.861
21
-61.0297
0
LINE
8
BLACK
6
CONTINUOUS
10
106.861
20
-61.0297
11
106.946
21
-60.9164
0
LINE
8
BLACK
6
CONTINUOUS
10
106.946
20
-60.9164
11
107.06
21
-60.8314
0
LINE
8
BLACK
6
CONTINUOUS
10
107.06
20
-60.8314
11
107.192
21
-60.7817
0
LINE
8
BLACK
6
CONTINUOUS
10
107.192
20
-60.7817
11
107.3
21
-60.77
0
LINE
8
BLACK
6
CONTINUOUS
10
107.3
20
-60.77
11
108.2
21
-60.77
0
LINE
8
BLACK
6
CONTINUOUS
10
108.2
20
-60.77
11
108.308
21
-60.7817
0
LINE
8
BLACK
6
CONTINUOUS
10
136.808
20
-60.7817
11
136.94
21
-60.8314
0
LINE
8
BLACK
6
CONTINUOUS
10
136.94
20
-60.8314
11
137.054
21
-60.9164
0
LINE
8
BLACK
6
CONTINUOUS
10
137.054
20
-60.9164
11
137.139
21
-61.0297
0
LINE
8
BLACK
6
CONTINUOUS
10
137.139
20
-61.0297
11
137.188
21
-61.1624
0
LINE
8
BLACK
6
CONTINUOUS
10
137.188
20
-61.1624
11
137.2
21
-61.2697
0
LINE
8
BLACK
6
CONTINUOUS
10
137.2
20
-61.2697
11
137.2
21
-62.1703
0
LINE
8
BLACK
6
CONTINUOUS
10
137.2
20
-62.1703
11
137.188
21
-62.2776
0
LINE
8
BLACK
6
CONTINUOUS
10
137.188
20
-62.2776
11
137.139
21
-62.4103
0
LINE
8
BLACK
6
CONTINUOUS
10
137.139
20
-62.4103
11
137.054
21
-62.5236
0
LINE
8
BLACK
6
CONTINUOUS
10
137.054
20
-62.5236
11
136.94
21
-62.6086
0
LINE
8
BLACK
6
CONTINUOUS
10
136.94
20
-62.6086
11
136.808
21
-62.6583
0
LINE
8
BLACK
6
CONTINUOUS
10
136.808
20
-62.6583
11
136.7
21
-62.67
0
LINE
8
BLACK
6
CONTINUOUS
10
136.7
20
-62.67
11
135.8
21
-62.67
0
LINE
8
BLACK
6
CONTINUOUS
10
135.8
20
-62.67
11
135.692
21
-62.6583
0
LINE
8
BLACK
6
CONTINUOUS
10
135.692
20
-62.6583
11
135.56
21
-62.6086
0
LINE
8
BLACK
6
CONTINUOUS
10
135.56
20
-62.6086
11
135.446
21
-62.5236
0
LINE
8
BLACK
6
CONTINUOUS
10
135.446
20
-62.5236
11
135.361
21
-62.4103
0
LINE
8
BLACK
6
CONTINUOUS
10
135.361
20
-62.4103
11
135.312
21
-62.2776
0
LINE
8
BLACK
6
CONTINUOUS
10
135.312
20
-62.2776
11
135.3
21
-62.1703
0
LINE
8
BLACK
6
CONTINUOUS
10
135.3
20
-62.1703
11
135.3
21
-61.2697
0
LINE
8
BLACK
6
CONTINUOUS
10
135.3
20
-61.2697
11
135.312
21
-61.1624
0
LINE
8
BLACK
6
CONTINUOUS
10
135.312
20
-61.1624
11
135.361
21
-61.0297
0
LINE
8
BLACK
6
CONTINUOUS
10
135.361
20
-61.0297
11
135.446
21
-60.9164
0
LINE
8
BLACK
6
CONTINUOUS
10
135.446
20
-60.9164
11
135.56
21
-60.8314
0
LINE
8
BLACK
6
CONTINUOUS
10
135.56
20
-60.8314
11
135.692
21
-60.7817
0
LINE
8
BLACK
6
CONTINUOUS
10
135.692
20
-60.7817
11
135.8
21
-60.77
0
LINE
8
BLACK
6
CONTINUOUS
10
135.8
20
-60.77
11
136.7
21
-60.77
0
LINE
8
BLACK
6
CONTINUOUS
10
136.7
20
-60.77
11
136.808
21
-60.7817
0
LINE
8
BLACK
6
CONTINUOUS
10
102.695
20
-60.4053
11
102.874
21
-60.4453
0
LINE
8
BLACK
6
CONTINUOUS
10
102.874
20
-60.4453
11
103.04
21
-60.5229
0
LINE
8
BLACK
6
CONTINUOUS
10
103.04
20
-60.5229
11
103.186
21
-60.6345
0
LINE
8
BLACK
6
CONTINUOUS
10
103.186
20
-60.6345
11
103.305
21
-60.7747
0
LINE
8
BLACK
6
CONTINUOUS
10
103.305
20
-60.7747
11
103.39
21
-60.9371
0
LINE
8
BLACK
6
CONTINUOUS
10
103.39
20
-60.9371
11
103.439
21
-61.1141
0
LINE
8
BLACK
6
CONTINUOUS
10
103.439
20
-61.1141
11
103.449
21
-61.2974
0
LINE
8
BLACK
6
CONTINUOUS
10
103.449
20
-61.2974
11
103.419
21
-61.4786
0
LINE
8
BLACK
6
CONTINUOUS
10
103.419
20
-61.4786
11
103.351
21
-61.6491
0
LINE
8
BLACK
6
CONTINUOUS
10
103.351
20
-61.6491
11
103.247
21
-61.8009
0
LINE
8
BLACK
6
CONTINUOUS
10
103.247
20
-61.8009
11
103.114
21
-61.9271
0
LINE
8
BLACK
6
CONTINUOUS
10
103.114
20
-61.9271
11
102.957
21
-62.0216
0
LINE
8
BLACK
6
CONTINUOUS
10
102.957
20
-62.0216
11
102.783
21
-62.0802
0
LINE
8
BLACK
6
CONTINUOUS
10
102.783
20
-62.0802
11
102.6
21
-62.1
0
LINE
8
BLACK
6
CONTINUOUS
10
102.6
20
-62.1
11
102.35
21
-62.1
0
LINE
8
BLACK
6
CONTINUOUS
10
102.35
20
-62.1
11
102.255
21
-62.0947
0
LINE
8
BLACK
6
CONTINUOUS
10
102.255
20
-62.0947
11
102.076
21
-62.0547
0
LINE
8
BLACK
6
CONTINUOUS
10
102.076
20
-62.0547
11
101.91
21
-61.9771
0
LINE
8
BLACK
6
CONTINUOUS
10
101.91
20
-61.9771
11
101.764
21
-61.8655
0
LINE
8
BLACK
6
CONTINUOUS
10
101.764
20
-61.8655
11
101.645
21
-61.7253
0
LINE
8
BLACK
6
CONTINUOUS
10
101.645
20
-61.7253
11
101.56
21
-61.5629
0
LINE
8
BLACK
6
CONTINUOUS
10
101.56
20
-61.5629
11
101.511
21
-61.3859
0
LINE
8
BLACK
6
CONTINUOUS
10
101.511
20
-61.3859
11
101.501
21
-61.2026
0
LINE
8
BLACK
6
CONTINUOUS
10
101.501
20
-61.2026
11
101.531
21
-61.0214
0
LINE
8
BLACK
6
CONTINUOUS
10
101.531
20
-61.0214
11
101.599
21
-60.8509
0
LINE
8
BLACK
6
CONTINUOUS
10
101.599
20
-60.8509
11
101.703
21
-60.6991
0
LINE
8
BLACK
6
CONTINUOUS
10
101.703
20
-60.6991
11
101.836
21
-60.573
0
LINE
8
BLACK
6
CONTINUOUS
10
101.836
20
-60.573
11
101.993
21
-60.4784
0
LINE
8
BLACK
6
CONTINUOUS
10
101.993
20
-60.4784
11
102.167
21
-60.4198
0
LINE
8
BLACK
6
CONTINUOUS
10
102.167
20
-60.4198
11
102.35
21
-60.4
0
LINE
8
BLACK
6
CONTINUOUS
10
102.35
20
-60.4
11
102.6
21
-60.4
0
LINE
8
BLACK
6
CONTINUOUS
10
102.6
20
-60.4
11
102.695
21
-60.4053
0
LINE
8
BLACK
6
CONTINUOUS
10
126.5
20
-60.4508
11
126.506
21
-60.45
0
LINE
8
BLACK
6
CONTINUOUS
10
126.506
20
-60.45
11
126.646
21
-60.4718
0
LINE
8
BLACK
6
CONTINUOUS
10
126.646
20
-60.4718
11
126.775
21
-60.5321
0
LINE
8
BLACK
6
CONTINUOUS
10
126.775
20
-60.5321
11
126.881
21
-60.6259
0
LINE
8
BLACK
6
CONTINUOUS
10
126.881
20
-60.6259
11
126.956
21
-60.7458
0
LINE
8
BLACK
6
CONTINUOUS
10
126.956
20
-60.7458
11
126.995
21
-60.8821
0
LINE
8
BLACK
6
CONTINUOUS
10
126.995
20
-60.8821
11
126.995
21
-60.95
0
LINE
8
BLACK
6
CONTINUOUS
10
126.995
20
-60.95
11
127
21
-60.95
0
LINE
8
BLACK
6
CONTINUOUS
10
127
20
-60.95
11
127
21
-61.5
0
LINE
8
BLACK
6
CONTINUOUS
10
127
20
-61.5
11
125.5
21
-61.5
0
LINE
8
BLACK
6
CONTINUOUS
10
125.5
20
-61.5
11
125.5
21
-60.95
0
LINE
8
BLACK
6
CONTINUOUS
10
125.5
20
-60.95
11
125.505
21
-60.95
0
LINE
8
BLACK
6
CONTINUOUS
10
125.505
20
-60.95
11
125.506
21
-60.8701
0
LINE
8
BLACK
6
CONTINUOUS
10
125.506
20
-60.8701
11
125.549
21
-60.7347
0
LINE
8
BLACK
6
CONTINUOUS
10
125.549
20
-60.7347
11
125.627
21
-60.6167
0
LINE
8
BLACK
6
CONTINUOUS
10
125.627
20
-60.6167
11
125.736
21
-60.5255
0
LINE
8
BLACK
6
CONTINUOUS
10
125.736
20
-60.5255
11
125.866
21
-60.4684
0
LINE
8
BLACK
6
CONTINUOUS
10
125.866
20
-60.4684
11
126
21
-60.4508
0
LINE
8
BLACK
6
CONTINUOUS
10
126
20
-60.4508
11
126
21
-60.45
0
LINE
8
BLACK
6
CONTINUOUS
10
126
20
-60.45
11
126.5
21
-60.45
0
LINE
8
BLACK
6
CONTINUOUS
10
126.5
20
-60.45
11
126.5
21
-60.4508
0
LINE
8
BLACK
6
CONTINUOUS
10
118.45
20
-59.9
11
118.445
21
-59.9
0
LINE
8
BLACK
6
CONTINUOUS
10
118.445
20
-59.9
11
118.444
21
-59.9799
0
LINE
8
BLACK
6
CONTINUOUS
10
118.444
20
-59.9799
11
118.401
21
-60.1153
0
LINE
8
BLACK
6
CONTINUOUS
10
118.401
20
-60.1153
11
118.323
21
-60.2333
0
LINE
8
BLACK
6
CONTINUOUS
10
118.323
20
-60.2333
11
118.214
21
-60.3245
0
LINE
8
BLACK
6
CONTINUOUS
10
118.214
20
-60.3245
11
118.084
21
-60.3816
0
LINE
8
BLACK
6
CONTINUOUS
10
118.084
20
-60.3816
11
117.95
21
-60.3992
0
LINE
8
BLACK
6
CONTINUOUS
10
117.95
20
-60.3992
11
117.95
21
-60.4
0
LINE
8
BLACK
6
CONTINUOUS
10
117.95
20
-60.4
11
117.45
21
-60.4
0
LINE
8
BLACK
6
CONTINUOUS
10
117.45
20
-60.4
11
117.45
21
-60.3992
0
LINE
8
BLACK
6
CONTINUOUS
10
117.45
20
-60.3992
11
117.444
21
-60.4
0
LINE
8
BLACK
6
CONTINUOUS
10
117.444
20
-60.4
11
117.304
21
-60.3782
0
LINE
8
BLACK
6
CONTINUOUS
10
117.304
20
-60.3782
11
117.175
21
-60.3179
0
LINE
8
BLACK
6
CONTINUOUS
10
117.175
20
-60.3179
11
117.069
21
-60.2241
0
LINE
8
BLACK
6
CONTINUOUS
10
117.069
20
-60.2241
11
116.994
21
-60.1042
0
LINE
8
BLACK
6
CONTINUOUS
10
116.994
20
-60.1042
11
116.955
21
-59.9679
0
LINE
8
BLACK
6
CONTINUOUS
10
116.955
20
-59.9679
11
116.955
21
-59.9
0
LINE
8
BLACK
6
CONTINUOUS
10
116.955
20
-59.9
11
116.95
21
-59.9
0
LINE
8
BLACK
6
CONTINUOUS
10
116.95
20
-59.9
11
116.95
21
-59.35
0
LINE
8
BLACK
6
CONTINUOUS
10
116.95
20
-59.35
11
118.45
21
-59.35
0
LINE
8
BLACK
6
CONTINUOUS
10
118.45
20
-59.35
11
118.45
21
-59.9
0
LINE
8
BLACK
6
CONTINUOUS
10
141.972
20
-58.71
11
142.14
21
-58.7698
0
LINE
8
BLACK
6
CONTINUOUS
10
142.14
20
-58.7698
11
142.29
21
-58.8654
0
LINE
8
BLACK
6
CONTINUOUS
10
142.29
20
-58.8654
11
142.416
21
-58.9919
0
LINE
8
BLACK
6
CONTINUOUS
10
142.416
20
-58.9919
11
142.51
21
-59.1432
0
LINE
8
BLACK
6
CONTINUOUS
10
142.51
20
-59.1432
11
142.569
21
-59.3116
0
LINE
8
BLACK
6
CONTINUOUS
10
142.569
20
-59.3116
11
142.589
21
-59.4888
0
LINE
8
BLACK
6
CONTINUOUS
10
142.589
20
-59.4888
11
142.589
21
-59.5112
0
LINE
8
BLACK
6
CONTINUOUS
10
142.589
20
-59.5112
11
142.564
21
-59.6878
0
LINE
8
BLACK
6
CONTINUOUS
10
142.564
20
-59.6878
11
142.5
21
-59.8545
0
LINE
8
BLACK
6
CONTINUOUS
10
142.5
20
-59.8545
11
142.402
21
-60.0031
0
LINE
8
BLACK
6
CONTINUOUS
10
142.402
20
-60.0031
11
142.273
21
-60.1261
0
LINE
8
BLACK
6
CONTINUOUS
10
142.273
20
-60.1261
11
142.119
21
-60.2174
0
LINE
8
BLACK
6
CONTINUOUS
10
142.119
20
-60.2174
11
141.95
21
-60.2725
0
LINE
8
BLACK
6
CONTINUOUS
10
141.95
20
-60.2725
11
141.772
21
-60.2887
0
LINE
8
BLACK
6
CONTINUOUS
10
141.772
20
-60.2887
11
141.595
21
-60.2651
0
LINE
8
BLACK
6
CONTINUOUS
10
141.595
20
-60.2651
11
141.428
21
-60.2029
0
LINE
8
BLACK
6
CONTINUOUS
10
141.428
20
-60.2029
11
141.279
21
-60.1053
0
LINE
8
BLACK
6
CONTINUOUS
10
141.279
20
-60.1053
11
141.155
21
-59.977
0
LINE
8
BLACK
6
CONTINUOUS
10
141.155
20
-59.977
11
141.063
21
-59.8244
0
LINE
8
BLACK
6
CONTINUOUS
10
141.063
20
-59.8244
11
141.006
21
-59.6552
0
LINE
8
BLACK
6
CONTINUOUS
10
141.006
20
-59.6552
11
140.989
21
-59.4777
0
LINE
8
BLACK
6
CONTINUOUS
10
140.989
20
-59.4777
11
141.011
21
-59.3007
0
LINE
8
BLACK
6
CONTINUOUS
10
141.011
20
-59.3007
11
141.072
21
-59.1331
0
LINE
8
BLACK
6
CONTINUOUS
10
141.072
20
-59.1331
11
141.169
21
-58.9832
0
LINE
8
BLACK
6
CONTINUOUS
10
141.169
20
-58.9832
11
141.296
21
-58.8584
0
LINE
8
BLACK
6
CONTINUOUS
10
141.296
20
-58.8584
11
141.448
21
-58.765
0
LINE
8
BLACK
6
CONTINUOUS
10
141.448
20
-58.765
11
141.617
21
-58.7075
0
LINE
8
BLACK
6
CONTINUOUS
10
141.617
20
-58.7075
11
141.794
21
-58.6889
0
LINE
8
BLACK
6
CONTINUOUS
10
141.794
20
-58.6889
11
141.972
21
-58.71
0
LINE
8
BLACK
6
CONTINUOUS
10
124.108
20
-58.2417
11
124.24
21
-58.2914
0
LINE
8
BLACK
6
CONTINUOUS
10
124.24
20
-58.2914
11
124.354
21
-58.3764
0
LINE
8
BLACK
6
CONTINUOUS
10
124.354
20
-58.3764
11
124.439
21
-58.4897
0
LINE
8
BLACK
6
CONTINUOUS
10
124.439
20
-58.4897
11
124.488
21
-58.6224
0
LINE
8
BLACK
6
CONTINUOUS
10
124.488
20
-58.6224
11
124.5
21
-58.7297
0
LINE
8
BLACK
6
CONTINUOUS
10
124.5
20
-58.7297
11
124.5
21
-59.6303
0
LINE
8
BLACK
6
CONTINUOUS
10
124.5
20
-59.6303
11
124.488
21
-59.7376
0
LINE
8
BLACK
6
CONTINUOUS
10
124.488
20
-59.7376
11
124.439
21
-59.8703
0
LINE
8
BLACK
6
CONTINUOUS
10
124.439
20
-59.8703
11
124.354
21
-59.9836
0
LINE
8
BLACK
6
CONTINUOUS
10
124.354
20
-59.9836
11
124.24
21
-60.0686
0
LINE
8
BLACK
6
CONTINUOUS
10
124.24
20
-60.0686
11
124.108
21
-60.1183
0
LINE
8
BLACK
6
CONTINUOUS
10
124.108
20
-60.1183
11
124
21
-60.13
0
LINE
8
BLACK
6
CONTINUOUS
10
124
20
-60.13
11
123.1
21
-60.13
0
LINE
8
BLACK
6
CONTINUOUS
10
123.1
20
-60.13
11
122.992
21
-60.1183
0
LINE
8
BLACK
6
CONTINUOUS
10
122.992
20
-60.1183
11
122.86
21
-60.0686
0
LINE
8
BLACK
6
CONTINUOUS
10
122.86
20
-60.0686
11
122.746
21
-59.9836
0
LINE
8
BLACK
6
CONTINUOUS
10
122.746
20
-59.9836
11
122.661
21
-59.8703
0
LINE
8
BLACK
6
CONTINUOUS
10
122.661
20
-59.8703
11
122.612
21
-59.7376
0
LINE
8
BLACK
6
CONTINUOUS
10
122.612
20
-59.7376
11
122.6
21
-59.6303
0
LINE
8
BLACK
6
CONTINUOUS
10
122.6
20
-59.6303
11
122.6
21
-58.7297
0
LINE
8
BLACK
6
CONTINUOUS
10
122.6
20
-58.7297
11
122.612
21
-58.6224
0
LINE
8
BLACK
6
CONTINUOUS
10
122.612
20
-58.6224
11
122.661
21
-58.4897
0
LINE
8
BLACK
6
CONTINUOUS
10
122.661
20
-58.4897
11
122.746
21
-58.3764
0
LINE
8
BLACK
6
CONTINUOUS
10
122.746
20
-58.3764
11
122.86
21
-58.2914
0
LINE
8
BLACK
6
CONTINUOUS
10
122.86
20
-58.2914
11
122.992
21
-58.2417
0
LINE
8
BLACK
6
CONTINUOUS
10
122.992
20
-58.2417
11
123.1
21
-58.23
0
LINE
8
BLACK
6
CONTINUOUS
10
123.1
20
-58.23
11
124
21
-58.23
0
LINE
8
BLACK
6
CONTINUOUS
10
124
20
-58.23
11
124.108
21
-58.2417
0
LINE
8
BLACK
6
CONTINUOUS
10
121.008
20
-58.2417
11
121.14
21
-58.2914
0
LINE
8
BLACK
6
CONTINUOUS
10
121.14
20
-58.2914
11
121.254
21
-58.3764
0
LINE
8
BLACK
6
CONTINUOUS
10
121.254
20
-58.3764
11
121.339
21
-58.4897
0
LINE
8
BLACK
6
CONTINUOUS
10
121.339
20
-58.4897
11
121.388
21
-58.6224
0
LINE
8
BLACK
6
CONTINUOUS
10
121.388
20
-58.6224
11
121.4
21
-58.7297
0
LINE
8
BLACK
6
CONTINUOUS
10
121.4
20
-58.7297
11
121.4
21
-59.6303
0
LINE
8
BLACK
6
CONTINUOUS
10
121.4
20
-59.6303
11
121.388
21
-59.7376
0
LINE
8
BLACK
6
CONTINUOUS
10
121.388
20
-59.7376
11
121.339
21
-59.8703
0
LINE
8
BLACK
6
CONTINUOUS
10
121.339
20
-59.8703
11
121.254
21
-59.9836
0
LINE
8
BLACK
6
CONTINUOUS
10
121.254
20
-59.9836
11
121.14
21
-60.0686
0
LINE
8
BLACK
6
CONTINUOUS
10
121.14
20
-60.0686
11
121.008
21
-60.1183
0
LINE
8
BLACK
6
CONTINUOUS
10
121.008
20
-60.1183
11
120.9
21
-60.13
0
LINE
8
BLACK
6
CONTINUOUS
10
120.9
20
-60.13
11
120
21
-60.13
0
LINE
8
BLACK
6
CONTINUOUS
10
120
20
-60.13
11
119.892
21
-60.1183
0
LINE
8
BLACK
6
CONTINUOUS
10
119.892
20
-60.1183
11
119.76
21
-60.0686
0
LINE
8
BLACK
6
CONTINUOUS
10
119.76
20
-60.0686
11
119.646
21
-59.9836
0
LINE
8
BLACK
6
CONTINUOUS
10
119.646
20
-59.9836
11
119.561
21
-59.8703
0
LINE
8
BLACK
6
CONTINUOUS
10
119.561
20
-59.8703
11
119.512
21
-59.7376
0
LINE
8
BLACK
6
CONTINUOUS
10
119.512
20
-59.7376
11
119.5
21
-59.6303
0
LINE
8
BLACK
6
CONTINUOUS
10
119.5
20
-59.6303
11
119.5
21
-58.7297
0
LINE
8
BLACK
6
CONTINUOUS
10
119.5
20
-58.7297
11
119.512
21
-58.6224
0
LINE
8
BLACK
6
CONTINUOUS
10
119.512
20
-58.6224
11
119.561
21
-58.4897
0
LINE
8
BLACK
6
CONTINUOUS
10
119.561
20
-58.4897
11
119.646
21
-58.3764
0
LINE
8
BLACK
6
CONTINUOUS
10
119.646
20
-58.3764
11
119.76
21
-58.2914
0
LINE
8
BLACK
6
CONTINUOUS
10
119.76
20
-58.2914
11
119.892
21
-58.2417
0
LINE
8
BLACK
6
CONTINUOUS
10
119.892
20
-58.2417
11
120
21
-58.23
0
LINE
8
BLACK
6
CONTINUOUS
10
120
20
-58.23
11
120.9
21
-58.23
0
LINE
8
BLACK
6
CONTINUOUS
10
120.9
20
-58.23
11
121.008
21
-58.2417
0
LINE
8
BLACK
6
CONTINUOUS
10
108.308
20
-58.2417
11
108.44
21
-58.2914
0
LINE
8
BLACK
6
CONTINUOUS
10
108.44
20
-58.2914
11
108.554
21
-58.3764
0
LINE
8
BLACK
6
CONTINUOUS
10
108.554
20
-58.3764
11
108.639
21
-58.4897
0
LINE
8
BLACK
6
CONTINUOUS
10
108.639
20
-58.4897
11
108.688
21
-58.6224
0
LINE
8
BLACK
6
CONTINUOUS
10
108.688
20
-58.6224
11
108.7
21
-58.7297
0
LINE
8
BLACK
6
CONTINUOUS
10
108.7
20
-58.7297
11
108.7
21
-59.6303
0
LINE
8
BLACK
6
CONTINUOUS
10
108.7
20
-59.6303
11
108.688
21
-59.7376
0
LINE
8
BLACK
6
CONTINUOUS
10
108.688
20
-59.7376
11
108.639
21
-59.8703
0
LINE
8
BLACK
6
CONTINUOUS
10
108.639
20
-59.8703
11
108.554
21
-59.9836
0
LINE
8
BLACK
6
CONTINUOUS
10
108.554
20
-59.9836
11
108.44
21
-60.0686
0
LINE
8
BLACK
6
CONTINUOUS
10
108.44
20
-60.0686
11
108.308
21
-60.1183
0
LINE
8
BLACK
6
CONTINUOUS
10
108.308
20
-60.1183
11
108.2
21
-60.13
0
LINE
8
BLACK
6
CONTINUOUS
10
108.2
20
-60.13
11
107.3
21
-60.13
0
LINE
8
BLACK
6
CONTINUOUS
10
107.3
20
-60.13
11
107.192
21
-60.1183
0
LINE
8
BLACK
6
CONTINUOUS
10
107.192
20
-60.1183
11
107.06
21
-60.0686
0
LINE
8
BLACK
6
CONTINUOUS
10
107.06
20
-60.0686
11
106.946
21
-59.9836
0
LINE
8
BLACK
6
CONTINUOUS
10
106.946
20
-59.9836
11
106.861
21
-59.8703
0
LINE
8
BLACK
6
CONTINUOUS
10
106.861
20
-59.8703
11
106.812
21
-59.7376
0
LINE
8
BLACK
6
CONTINUOUS
10
106.812
20
-59.7376
11
106.8
21
-59.6303
0
LINE
8
BLACK
6
CONTINUOUS
10
106.8
20
-59.6303
11
106.8
21
-58.7297
0
LINE
8
BLACK
6
CONTINUOUS
10
106.8
20
-58.7297
11
106.812
21
-58.6224
0
LINE
8
BLACK
6
CONTINUOUS
10
106.812
20
-58.6224
11
106.861
21
-58.4897
0
LINE
8
BLACK
6
CONTINUOUS
10
106.861
20
-58.4897
11
106.946
21
-58.3764
0
LINE
8
BLACK
6
CONTINUOUS
10
106.946
20
-58.3764
11
107.06
21
-58.2914
0
LINE
8
BLACK
6
CONTINUOUS
10
107.06
20
-58.2914
11
107.192
21
-58.2417
0
LINE
8
BLACK
6
CONTINUOUS
10
107.192
20
-58.2417
11
107.3
21
-58.23
0
LINE
8
BLACK
6
CONTINUOUS
10
107.3
20
-58.23
11
108.2
21
-58.23
0
LINE
8
BLACK
6
CONTINUOUS
10
108.2
20
-58.23
11
108.308
21
-58.2417
0
LINE
8
BLACK
6
CONTINUOUS
10
136.808
20
-58.2417
11
136.94
21
-58.2914
0
LINE
8
BLACK
6
CONTINUOUS
10
136.94
20
-58.2914
11
137.054
21
-58.3764
0
LINE
8
BLACK
6
CONTINUOUS
10
137.054
20
-58.3764
11
137.139
21
-58.4897
0
LINE
8
BLACK
6
CONTINUOUS
10
137.139
20
-58.4897
11
137.188
21
-58.6224
0
LINE
8
BLACK
6
CONTINUOUS
10
137.188
20
-58.6224
11
137.2
21
-58.7297
0
LINE
8
BLACK
6
CONTINUOUS
10
137.2
20
-58.7297
11
137.2
21
-59.6303
0
LINE
8
BLACK
6
CONTINUOUS
10
137.2
20
-59.6303
11
137.188
21
-59.7376
0
LINE
8
BLACK
6
CONTINUOUS
10
137.188
20
-59.7376
11
137.139
21
-59.8703
0
LINE
8
BLACK
6
CONTINUOUS
10
137.139
20
-59.8703
11
137.054
21
-59.9836
0
LINE
8
BLACK
6
CONTINUOUS
10
137.054
20
-59.9836
11
136.94
21
-60.0686
0
LINE
8
BLACK
6
CONTINUOUS
10
136.94
20
-60.0686
11
136.808
21
-60.1183
0
LINE
8
BLACK
6
CONTINUOUS
10
136.808
20
-60.1183
11
136.7
21
-60.13
0
LINE
8
BLACK
6
CONTINUOUS
10
136.7
20
-60.13
11
135.8
21
-60.13
0
LINE
8
BLACK
6
CONTINUOUS
10
135.8
20
-60.13
11
135.692
21
-60.1183
0
LINE
8
BLACK
6
CONTINUOUS
10
135.692
20
-60.1183
11
135.56
21
-60.0686
0
LINE
8
BLACK
6
CONTINUOUS
10
135.56
20
-60.0686
11
135.446
21
-59.9836
0
LINE
8
BLACK
6
CONTINUOUS
10
135.446
20
-59.9836
11
135.361
21
-59.8703
0
LINE
8
BLACK
6
CONTINUOUS
10
135.361
20
-59.8703
11
135.312
21
-59.7376
0
LINE
8
BLACK
6
CONTINUOUS
10
135.312
20
-59.7376
11
135.3
21
-59.6303
0
LINE
8
BLACK
6
CONTINUOUS
10
135.3
20
-59.6303
11
135.3
21
-58.7297
0
LINE
8
BLACK
6
CONTINUOUS
10
135.3
20
-58.7297
11
135.312
21
-58.6224
0
LINE
8
BLACK
6
CONTINUOUS
10
135.312
20
-58.6224
11
135.361
21
-58.4897
0
LINE
8
BLACK
6
CONTINUOUS
10
135.361
20
-58.4897
11
135.446
21
-58.3764
0
LINE
8
BLACK
6
CONTINUOUS
10
135.446
20
-58.3764
11
135.56
21
-58.2914
0
LINE
8
BLACK
6
CONTINUOUS
10
135.56
20
-58.2914
11
135.692
21
-58.2417
0
LINE
8
BLACK
6
CONTINUOUS
10
135.692
20
-58.2417
11
135.8
21
-58.23
0
LINE
8
BLACK
6
CONTINUOUS
10
135.8
20
-58.23
11
136.7
21
-58.23
0
LINE
8
BLACK
6
CONTINUOUS
10
136.7
20
-58.23
11
136.808
21
-58.2417
0
LINE
8
BLACK
6
CONTINUOUS
10
128.55
20
-58.255
11
128.63
21
-58.2564
0
LINE
8
BLACK
6
CONTINUOUS
10
128.63
20
-58.2564
11
128.765
21
-58.2987
0
LINE
8
BLACK
6
CONTINUOUS
10
128.765
20
-58.2987
11
128.883
21
-58.3773
0
LINE
8
BLACK
6
CONTINUOUS
10
128.883
20
-58.3773
11
128.974
21
-58.4858
0
LINE
8
BLACK
6
CONTINUOUS
10
128.974
20
-58.4858
11
129.032
21
-58.6155
0
LINE
8
BLACK
6
CONTINUOUS
10
129.032
20
-58.6155
11
129.049
21
-58.75
0
LINE
8
BLACK
6
CONTINUOUS
10
129.049
20
-58.75
11
129.05
21
-58.75
0
LINE
8
BLACK
6
CONTINUOUS
10
129.05
20
-58.75
11
129.05
21
-59.25
0
LINE
8
BLACK
6
CONTINUOUS
10
129.05
20
-59.25
11
129.049
21
-59.25
0
LINE
8
BLACK
6
CONTINUOUS
10
129.049
20
-59.25
11
129.05
21
-59.2561
0
LINE
8
BLACK
6
CONTINUOUS
10
129.05
20
-59.2561
11
129.028
21
-59.3962
0
LINE
8
BLACK
6
CONTINUOUS
10
129.028
20
-59.3962
11
128.968
21
-59.5245
0
LINE
8
BLACK
6
CONTINUOUS
10
128.968
20
-59.5245
11
128.874
21
-59.6308
0
LINE
8
BLACK
6
CONTINUOUS
10
128.874
20
-59.6308
11
128.754
21
-59.7064
0
LINE
8
BLACK
6
CONTINUOUS
10
128.754
20
-59.7064
11
128.618
21
-59.7454
0
LINE
8
BLACK
6
CONTINUOUS
10
128.618
20
-59.7454
11
128.55
21
-59.745
0
LINE
8
BLACK
6
CONTINUOUS
10
128.55
20
-59.745
11
128.55
21
-59.75
0
LINE
8
BLACK
6
CONTINUOUS
10
128.55
20
-59.75
11
128
21
-59.75
0
LINE
8
BLACK
6
CONTINUOUS
10
128
20
-59.75
11
128
21
-58.25
0
LINE
8
BLACK
6
CONTINUOUS
10
128
20
-58.25
11
128.55
21
-58.25
0
LINE
8
BLACK
6
CONTINUOUS
10
128.55
20
-58.25
11
128.55
21
-58.255
0
LINE
8
BLACK
6
CONTINUOUS
10
127.75
20
-59.75
11
126.75
21
-59.75
0
LINE
8
BLACK
6
CONTINUOUS
10
126.75
20
-59.75
11
126.75
21
-58.25
0
LINE
8
BLACK
6
CONTINUOUS
10
126.75
20
-58.25
11
127.75
21
-58.25
0
LINE
8
BLACK
6
CONTINUOUS
10
127.75
20
-58.25
11
127.75
21
-59.75
0
LINE
8
BLACK
6
CONTINUOUS
10
126.5
20
-59.75
11
125.95
21
-59.75
0
LINE
8
BLACK
6
CONTINUOUS
10
125.95
20
-59.75
11
125.95
21
-59.745
0
LINE
8
BLACK
6
CONTINUOUS
10
125.95
20
-59.745
11
125.876
21
-59.7445
0
LINE
8
BLACK
6
CONTINUOUS
10
125.876
20
-59.7445
11
125.74
21
-59.7039
0
LINE
8
BLACK
6
CONTINUOUS
10
125.74
20
-59.7039
11
125.621
21
-59.6268
0
LINE
8
BLACK
6
CONTINUOUS
10
125.621
20
-59.6268
11
125.529
21
-59.5194
0
LINE
8
BLACK
6
CONTINUOUS
10
125.529
20
-59.5194
11
125.47
21
-59.3903
0
LINE
8
BLACK
6
CONTINUOUS
10
125.47
20
-59.3903
11
125.45
21
-59.25
0
LINE
8
BLACK
6
CONTINUOUS
10
125.45
20
-59.25
11
125.45
21
-58.75
0
LINE
8
BLACK
6
CONTINUOUS
10
125.45
20
-58.75
11
125.45
21
-58.7378
0
LINE
8
BLACK
6
CONTINUOUS
10
125.45
20
-58.7378
11
125.474
21
-58.598
0
LINE
8
BLACK
6
CONTINUOUS
10
125.474
20
-58.598
11
125.535
21
-58.4704
0
LINE
8
BLACK
6
CONTINUOUS
10
125.535
20
-58.4704
11
125.631
21
-58.3653
0
LINE
8
BLACK
6
CONTINUOUS
10
125.631
20
-58.3653
11
125.751
21
-58.2911
0
LINE
8
BLACK
6
CONTINUOUS
10
125.751
20
-58.2911
11
125.888
21
-58.2538
0
LINE
8
BLACK
6
CONTINUOUS
10
125.888
20
-58.2538
11
125.95
21
-58.255
0
LINE
8
BLACK
6
CONTINUOUS
10
125.95
20
-58.255
11
125.95
21
-58.25
0
LINE
8
BLACK
6
CONTINUOUS
10
125.95
20
-58.25
11
126.5
21
-58.25
0
LINE
8
BLACK
6
CONTINUOUS
10
126.5
20
-58.25
11
126.5
21
-59.75
0
LINE
8
BLACK
6
CONTINUOUS
10
102.695
20
-57.9053
11
102.874
21
-57.9453
0
LINE
8
BLACK
6
CONTINUOUS
10
102.874
20
-57.9453
11
103.04
21
-58.0229
0
LINE
8
BLACK
6
CONTINUOUS
10
103.04
20
-58.0229
11
103.186
21
-58.1345
0
LINE
8
BLACK
6
CONTINUOUS
10
103.186
20
-58.1345
11
103.305
21
-58.2747
0
LINE
8
BLACK
6
CONTINUOUS
10
103.305
20
-58.2747
11
103.39
21
-58.4371
0
LINE
8
BLACK
6
CONTINUOUS
10
103.39
20
-58.4371
11
103.439
21
-58.6141
0
LINE
8
BLACK
6
CONTINUOUS
10
103.439
20
-58.6141
11
103.449
21
-58.7974
0
LINE
8
BLACK
6
CONTINUOUS
10
103.449
20
-58.7974
11
103.419
21
-58.9786
0
LINE
8
BLACK
6
CONTINUOUS
10
103.419
20
-58.9786
11
103.351
21
-59.1491
0
LINE
8
BLACK
6
CONTINUOUS
10
103.351
20
-59.1491
11
103.247
21
-59.3009
0
LINE
8
BLACK
6
CONTINUOUS
10
103.247
20
-59.3009
11
103.114
21
-59.4271
0
LINE
8
BLACK
6
CONTINUOUS
10
103.114
20
-59.4271
11
102.957
21
-59.5216
0
LINE
8
BLACK
6
CONTINUOUS
10
102.957
20
-59.5216
11
102.783
21
-59.5802
0
LINE
8
BLACK
6
CONTINUOUS
10
102.783
20
-59.5802
11
102.6
21
-59.6
0
LINE
8
BLACK
6
CONTINUOUS
10
102.6
20
-59.6
11
102.35
21
-59.6
0
LINE
8
BLACK
6
CONTINUOUS
10
102.35
20
-59.6
11
102.255
21
-59.5947
0
LINE
8
BLACK
6
CONTINUOUS
10
102.255
20
-59.5947
11
102.076
21
-59.5547
0
LINE
8
BLACK
6
CONTINUOUS
10
102.076
20
-59.5547
11
101.91
21
-59.4771
0
LINE
8
BLACK
6
CONTINUOUS
10
101.91
20
-59.4771
11
101.764
21
-59.3655
0
LINE
8
BLACK
6
CONTINUOUS
10
101.764
20
-59.3655
11
101.645
21
-59.2253
0
LINE
8
BLACK
6
CONTINUOUS
10
101.645
20
-59.2253
11
101.56
21
-59.0629
0
LINE
8
BLACK
6
CONTINUOUS
10
101.56
20
-59.0629
11
101.511
21
-58.8859
0
LINE
8
BLACK
6
CONTINUOUS
10
101.511
20
-58.8859
11
101.501
21
-58.7026
0
LINE
8
BLACK
6
CONTINUOUS
10
101.501
20
-58.7026
11
101.531
21
-58.5214
0
LINE
8
BLACK
6
CONTINUOUS
10
101.531
20
-58.5214
11
101.599
21
-58.3509
0
LINE
8
BLACK
6
CONTINUOUS
10
101.599
20
-58.3509
11
101.703
21
-58.1991
0
LINE
8
BLACK
6
CONTINUOUS
10
101.703
20
-58.1991
11
101.836
21
-58.073
0
LINE
8
BLACK
6
CONTINUOUS
10
101.836
20
-58.073
11
101.993
21
-57.9784
0
LINE
8
BLACK
6
CONTINUOUS
10
101.993
20
-57.9784
11
102.167
21
-57.9198
0
LINE
8
BLACK
6
CONTINUOUS
10
102.167
20
-57.9198
11
102.35
21
-57.9
0
LINE
8
BLACK
6
CONTINUOUS
10
102.35
20
-57.9
11
102.6
21
-57.9
0
LINE
8
BLACK
6
CONTINUOUS
10
102.6
20
-57.9
11
102.695
21
-57.9053
0
LINE
8
BLACK
6
CONTINUOUS
10
141.506
20
-58.0746
11
140.375
21
-59.206
0
LINE
8
BLACK
6
CONTINUOUS
10
140.375
20
-59.206
11
139.243
21
-58.0746
0
LINE
8
BLACK
6
CONTINUOUS
10
139.243
20
-58.0746
11
140.375
21
-56.9433
0
LINE
8
BLACK
6
CONTINUOUS
10
140.375
20
-56.9433
11
141.506
21
-58.0746
0
LINE
8
BLACK
6
CONTINUOUS
10
118.45
20
-59.1
11
116.95
21
-59.1
0
LINE
8
BLACK
6
CONTINUOUS
10
116.95
20
-59.1
11
116.95
21
-58.1
0
LINE
8
BLACK
6
CONTINUOUS
10
116.95
20
-58.1
11
118.45
21
-58.1
0
LINE
8
BLACK
6
CONTINUOUS
10
118.45
20
-58.1
11
118.45
21
-59.1
0
LINE
8
BLACK
6
CONTINUOUS
10
117.962
20
-56.8001
11
118.102
21
-56.8237
0
LINE
8
BLACK
6
CONTINUOUS
10
118.102
20
-56.8237
11
118.23
21
-56.8855
0
LINE
8
BLACK
6
CONTINUOUS
10
118.23
20
-56.8855
11
118.335
21
-56.9806
0
LINE
8
BLACK
6
CONTINUOUS
10
118.335
20
-56.9806
11
118.409
21
-57.1014
0
LINE
8
BLACK
6
CONTINUOUS
10
118.409
20
-57.1014
11
118.446
21
-57.2382
0
LINE
8
BLACK
6
CONTINUOUS
10
118.446
20
-57.2382
11
118.445
21
-57.3
0
LINE
8
BLACK
6
CONTINUOUS
10
118.445
20
-57.3
11
118.45
21
-57.3
0
LINE
8
BLACK
6
CONTINUOUS
10
118.45
20
-57.3
11
118.45
21
-57.85
0
LINE
8
BLACK
6
CONTINUOUS
10
118.45
20
-57.85
11
116.95
21
-57.85
0
LINE
8
BLACK
6
CONTINUOUS
10
116.95
20
-57.85
11
116.95
21
-57.3
0
LINE
8
BLACK
6
CONTINUOUS
10
116.95
20
-57.3
11
116.955
21
-57.3
0
LINE
8
BLACK
6
CONTINUOUS
10
116.955
20
-57.3
11
116.955
21
-57.2261
0
LINE
8
BLACK
6
CONTINUOUS
10
116.955
20
-57.2261
11
116.996
21
-57.0903
0
LINE
8
BLACK
6
CONTINUOUS
10
116.996
20
-57.0903
11
117.073
21
-56.9713
0
LINE
8
BLACK
6
CONTINUOUS
10
117.073
20
-56.9713
11
117.181
21
-56.8788
0
LINE
8
BLACK
6
CONTINUOUS
10
117.181
20
-56.8788
11
117.31
21
-56.8201
0
LINE
8
BLACK
6
CONTINUOUS
10
117.31
20
-56.8201
11
117.45
21
-56.8
0
LINE
8
BLACK
6
CONTINUOUS
10
117.45
20
-56.8
11
117.95
21
-56.8
0
LINE
8
BLACK
6
CONTINUOUS
10
117.95
20
-56.8
11
117.962
21
-56.8001
0
LINE
8
BLACK
6
CONTINUOUS
10
124.108
20
-55.7017
11
124.24
21
-55.7514
0
LINE
8
BLACK
6
CONTINUOUS
10
124.24
20
-55.7514
11
124.354
21
-55.8364
0
LINE
8
BLACK
6
CONTINUOUS
10
124.354
20
-55.8364
11
124.439
21
-55.9497
0
LINE
8
BLACK
6
CONTINUOUS
10
124.439
20
-55.9497
11
124.488
21
-56.0824
0
LINE
8
BLACK
6
CONTINUOUS
10
124.488
20
-56.0824
11
124.5
21
-56.1897
0
LINE
8
BLACK
6
CONTINUOUS
10
124.5
20
-56.1897
11
124.5
21
-57.0903
0
LINE
8
BLACK
6
CONTINUOUS
10
124.5
20
-57.0903
11
124.488
21
-57.1976
0
LINE
8
BLACK
6
CONTINUOUS
10
124.488
20
-57.1976
11
124.439
21
-57.3303
0
LINE
8
BLACK
6
CONTINUOUS
10
124.439
20
-57.3303
11
124.354
21
-57.4436
0
LINE
8
BLACK
6
CONTINUOUS
10
124.354
20
-57.4436
11
124.24
21
-57.5286
0
LINE
8
BLACK
6
CONTINUOUS
10
124.24
20
-57.5286
11
124.108
21
-57.5783
0
LINE
8
BLACK
6
CONTINUOUS
10
124.108
20
-57.5783
11
124
21
-57.59
0
LINE
8
BLACK
6
CONTINUOUS
10
124
20
-57.59
11
123.1
21
-57.59
0
LINE
8
BLACK
6
CONTINUOUS
10
123.1
20
-57.59
11
122.992
21
-57.5783
0
LINE
8
BLACK
6
CONTINUOUS
10
122.992
20
-57.5783
11
122.86
21
-57.5286
0
LINE
8
BLACK
6
CONTINUOUS
10
122.86
20
-57.5286
11
122.746
21
-57.4436
0
LINE
8
BLACK
6
CONTINUOUS
10
122.746
20
-57.4436
11
122.661
21
-57.3303
0
LINE
8
BLACK
6
CONTINUOUS
10
122.661
20
-57.3303
11
122.612
21
-57.1976
0
LINE
8
BLACK
6
CONTINUOUS
10
122.612
20
-57.1976
11
122.6
21
-57.0903
0
LINE
8
BLACK
6
CONTINUOUS
10
122.6
20
-57.0903
11
122.6
21
-56.1897
0
LINE
8
BLACK
6
CONTINUOUS
10
122.6
20
-56.1897
11
122.612
21
-56.0824
0
LINE
8
BLACK
6
CONTINUOUS
10
122.612
20
-56.0824
11
122.661
21
-55.9497
0
LINE
8
BLACK
6
CONTINUOUS
10
122.661
20
-55.9497
11
122.746
21
-55.8364
0
LINE
8
BLACK
6
CONTINUOUS
10
122.746
20
-55.8364
11
122.86
21
-55.7514
0
LINE
8
BLACK
6
CONTINUOUS
10
122.86
20
-55.7514
11
122.992
21
-55.7017
0
LINE
8
BLACK
6
CONTINUOUS
10
122.992
20
-55.7017
11
123.1
21
-55.69
0
LINE
8
BLACK
6
CONTINUOUS
10
123.1
20
-55.69
11
124
21
-55.69
0
LINE
8
BLACK
6
CONTINUOUS
10
124
20
-55.69
11
124.108
21
-55.7017
0
LINE
8
BLACK
6
CONTINUOUS
10
136.808
20
-55.7017
11
136.94
21
-55.7514
0
LINE
8
BLACK
6
CONTINUOUS
10
136.94
20
-55.7514
11
137.054
21
-55.8364
0
LINE
8
BLACK
6
CONTINUOUS
10
137.054
20
-55.8364
11
137.139
21
-55.9497
0
LINE
8
BLACK
6
CONTINUOUS
10
137.139
20
-55.9497
11
137.188
21
-56.0824
0
LINE
8
BLACK
6
CONTINUOUS
10
137.188
20
-56.0824
11
137.2
21
-56.1897
0
LINE
8
BLACK
6
CONTINUOUS
10
137.2
20
-56.1897
11
137.2
21
-57.0903
0
LINE
8
BLACK
6
CONTINUOUS
10
137.2
20
-57.0903
11
137.188
21
-57.1976
0
LINE
8
BLACK
6
CONTINUOUS
10
137.188
20
-57.1976
11
137.139
21
-57.3303
0
LINE
8
BLACK
6
CONTINUOUS
10
137.139
20
-57.3303
11
137.054
21
-57.4436
0
LINE
8
BLACK
6
CONTINUOUS
10
137.054
20
-57.4436
11
136.94
21
-57.5286
0
LINE
8
BLACK
6
CONTINUOUS
10
136.94
20
-57.5286
11
136.808
21
-57.5783
0
LINE
8
BLACK
6
CONTINUOUS
10
136.808
20
-57.5783
11
136.7
21
-57.59
0
LINE
8
BLACK
6
CONTINUOUS
10
136.7
20
-57.59
11
135.8
21
-57.59
0
LINE
8
BLACK
6
CONTINUOUS
10
135.8
20
-57.59
11
135.692
21
-57.5783
0
LINE
8
BLACK
6
CONTINUOUS
10
135.692
20
-57.5783
11
135.56
21
-57.5286
0
LINE
8
BLACK
6
CONTINUOUS
10
135.56
20
-57.5286
11
135.446
21
-57.4436
0
LINE
8
BLACK
6
CONTINUOUS
10
135.446
20
-57.4436
11
135.361
21
-57.3303
0
LINE
8
BLACK
6
CONTINUOUS
10
135.361
20
-57.3303
11
135.312
21
-57.1976
0
LINE
8
BLACK
6
CONTINUOUS
10
135.312
20
-57.1976
11
135.3
21
-57.0903
0
LINE
8
BLACK
6
CONTINUOUS
10
135.3
20
-57.0903
11
135.3
21
-56.1897
0
LINE
8
BLACK
6
CONTINUOUS
10
135.3
20
-56.1897
11
135.312
21
-56.0824
0
LINE
8
BLACK
6
CONTINUOUS
10
135.312
20
-56.0824
11
135.361
21
-55.9497
0
LINE
8
BLACK
6
CONTINUOUS
10
135.361
20
-55.9497
11
135.446
21
-55.8364
0
LINE
8
BLACK
6
CONTINUOUS
10
135.446
20
-55.8364
11
135.56
21
-55.7514
0
LINE
8
BLACK
6
CONTINUOUS
10
135.56
20
-55.7514
11
135.692
21
-55.7017
0
LINE
8
BLACK
6
CONTINUOUS
10
135.692
20
-55.7017
11
135.8
21
-55.69
0
LINE
8
BLACK
6
CONTINUOUS
10
135.8
20
-55.69
11
136.7
21
-55.69
0
LINE
8
BLACK
6
CONTINUOUS
10
136.7
20
-55.69
11
136.808
21
-55.7017
0
LINE
8
BLACK
6
CONTINUOUS
10
108.308
20
-55.7017
11
108.44
21
-55.7514
0
LINE
8
BLACK
6
CONTINUOUS
10
108.44
20
-55.7514
11
108.554
21
-55.8364
0
LINE
8
BLACK
6
CONTINUOUS
10
108.554
20
-55.8364
11
108.639
21
-55.9497
0
LINE
8
BLACK
6
CONTINUOUS
10
108.639
20
-55.9497
11
108.688
21
-56.0824
0
LINE
8
BLACK
6
CONTINUOUS
10
108.688
20
-56.0824
11
108.7
21
-56.1897
0
LINE
8
BLACK
6
CONTINUOUS
10
108.7
20
-56.1897
11
108.7
21
-57.0903
0
LINE
8
BLACK
6
CONTINUOUS
10
108.7
20
-57.0903
11
108.688
21
-57.1976
0
LINE
8
BLACK
6
CONTINUOUS
10
108.688
20
-57.1976
11
108.639
21
-57.3303
0
LINE
8
BLACK
6
CONTINUOUS
10
108.639
20
-57.3303
11
108.554
21
-57.4436
0
LINE
8
BLACK
6
CONTINUOUS
10
108.554
20
-57.4436
11
108.44
21
-57.5286
0
LINE
8
BLACK
6
CONTINUOUS
10
108.44
20
-57.5286
11
108.308
21
-57.5783
0
LINE
8
BLACK
6
CONTINUOUS
10
108.308
20
-57.5783
11
108.2
21
-57.59
0
LINE
8
BLACK
6
CONTINUOUS
10
108.2
20
-57.59
11
107.3
21
-57.59
0
LINE
8
BLACK
6
CONTINUOUS
10
107.3
20
-57.59
11
107.192
21
-57.5783
0
LINE
8
BLACK
6
CONTINUOUS
10
107.192
20
-57.5783
11
107.06
21
-57.5286
0
LINE
8
BLACK
6
CONTINUOUS
10
107.06
20
-57.5286
11
106.946
21
-57.4436
0
LINE
8
BLACK
6
CONTINUOUS
10
106.946
20
-57.4436
11
106.861
21
-57.3303
0
LINE
8
BLACK
6
CONTINUOUS
10
106.861
20
-57.3303
11
106.812
21
-57.1976
0
LINE
8
BLACK
6
CONTINUOUS
10
106.812
20
-57.1976
11
106.8
21
-57.0903
0
LINE
8
BLACK
6
CONTINUOUS
10
106.8
20
-57.0903
11
106.8
21
-56.1897
0
LINE
8
BLACK
6
CONTINUOUS
10
106.8
20
-56.1897
11
106.812
21
-56.0824
0
LINE
8
BLACK
6
CONTINUOUS
10
106.812
20
-56.0824
11
106.861
21
-55.9497
0
LINE
8
BLACK
6
CONTINUOUS
10
106.861
20
-55.9497
11
106.946
21
-55.8364
0
LINE
8
BLACK
6
CONTINUOUS
10
106.946
20
-55.8364
11
107.06
21
-55.7514
0
LINE
8
BLACK
6
CONTINUOUS
10
107.06
20
-55.7514
11
107.192
21
-55.7017
0
LINE
8
BLACK
6
CONTINUOUS
10
107.192
20
-55.7017
11
107.3
21
-55.69
0
LINE
8
BLACK
6
CONTINUOUS
10
107.3
20
-55.69
11
108.2
21
-55.69
0
LINE
8
BLACK
6
CONTINUOUS
10
108.2
20
-55.69
11
108.308
21
-55.7017
0
LINE
8
BLACK
6
CONTINUOUS
10
121.008
20
-55.7017
11
121.14
21
-55.7514
0
LINE
8
BLACK
6
CONTINUOUS
10
121.14
20
-55.7514
11
121.254
21
-55.8364
0
LINE
8
BLACK
6
CONTINUOUS
10
121.254
20
-55.8364
11
121.339
21
-55.9497
0
LINE
8
BLACK
6
CONTINUOUS
10
121.339
20
-55.9497
11
121.388
21
-56.0824
0
LINE
8
BLACK
6
CONTINUOUS
10
121.388
20
-56.0824
11
121.4
21
-56.1897
0
LINE
8
BLACK
6
CONTINUOUS
10
121.4
20
-56.1897
11
121.4
21
-57.0903
0
LINE
8
BLACK
6
CONTINUOUS
10
121.4
20
-57.0903
11
121.388
21
-57.1976
0
LINE
8
BLACK
6
CONTINUOUS
10
121.388
20
-57.1976
11
121.339
21
-57.3303
0
LINE
8
BLACK
6
CONTINUOUS
10
121.339
20
-57.3303
11
121.254
21
-57.4436
0
LINE
8
BLACK
6
CONTINUOUS
10
121.254
20
-57.4436
11
121.14
21
-57.5286
0
LINE
8
BLACK
6
CONTINUOUS
10
121.14
20
-57.5286
11
121.008
21
-57.5783
0
LINE
8
BLACK
6
CONTINUOUS
10
121.008
20
-57.5783
11
120.9
21
-57.59
0
LINE
8
BLACK
6
CONTINUOUS
10
120.9
20
-57.59
11
120
21
-57.59
0
LINE
8
BLACK
6
CONTINUOUS
10
120
20
-57.59
11
119.892
21
-57.5783
0
LINE
8
BLACK
6
CONTINUOUS
10
119.892
20
-57.5783
11
119.76
21
-57.5286
0
LINE
8
BLACK
6
CONTINUOUS
10
119.76
20
-57.5286
11
119.646
21
-57.4436
0
LINE
8
BLACK
6
CONTINUOUS
10
119.646
20
-57.4436
11
119.561
21
-57.3303
0
LINE
8
BLACK
6
CONTINUOUS
10
119.561
20
-57.3303
11
119.512
21
-57.1976
0
LINE
8
BLACK
6
CONTINUOUS
10
119.512
20
-57.1976
11
119.5
21
-57.0903
0
LINE
8
BLACK
6
CONTINUOUS
10
119.5
20
-57.0903
11
119.5
21
-56.1897
0
LINE
8
BLACK
6
CONTINUOUS
10
119.5
20
-56.1897
11
119.512
21
-56.0824
0
LINE
8
BLACK
6
CONTINUOUS
10
119.512
20
-56.0824
11
119.561
21
-55.9497
0
LINE
8
BLACK
6
CONTINUOUS
10
119.561
20
-55.9497
11
119.646
21
-55.8364
0
LINE
8
BLACK
6
CONTINUOUS
10
119.646
20
-55.8364
11
119.76
21
-55.7514
0
LINE
8
BLACK
6
CONTINUOUS
10
119.76
20
-55.7514
11
119.892
21
-55.7017
0
LINE
8
BLACK
6
CONTINUOUS
10
119.892
20
-55.7017
11
120
21
-55.69
0
LINE
8
BLACK
6
CONTINUOUS
10
120
20
-55.69
11
120.9
21
-55.69
0
LINE
8
BLACK
6
CONTINUOUS
10
120.9
20
-55.69
11
121.008
21
-55.7017
0
LINE
8
BLACK
6
CONTINUOUS
10
128.55
20
-55.755
11
128.63
21
-55.7564
0
LINE
8
BLACK
6
CONTINUOUS
10
128.63
20
-55.7564
11
128.765
21
-55.7987
0
LINE
8
BLACK
6
CONTINUOUS
10
128.765
20
-55.7987
11
128.883
21
-55.8773
0
LINE
8
BLACK
6
CONTINUOUS
10
128.883
20
-55.8773
11
128.974
21
-55.9858
0
LINE
8
BLACK
6
CONTINUOUS
10
128.974
20
-55.9858
11
129.032
21
-56.1155
0
LINE
8
BLACK
6
CONTINUOUS
10
129.032
20
-56.1155
11
129.049
21
-56.25
0
LINE
8
BLACK
6
CONTINUOUS
10
129.049
20
-56.25
11
129.05
21
-56.25
0
LINE
8
BLACK
6
CONTINUOUS
10
129.05
20
-56.25
11
129.05
21
-56.75
0
LINE
8
BLACK
6
CONTINUOUS
10
129.05
20
-56.75
11
129.049
21
-56.75
0
LINE
8
BLACK
6
CONTINUOUS
10
129.049
20
-56.75
11
129.05
21
-56.7561
0
LINE
8
BLACK
6
CONTINUOUS
10
129.05
20
-56.7561
11
129.028
21
-56.8962
0
LINE
8
BLACK
6
CONTINUOUS
10
129.028
20
-56.8962
11
128.968
21
-57.0245
0
LINE
8
BLACK
6
CONTINUOUS
10
128.968
20
-57.0245
11
128.874
21
-57.1308
0
LINE
8
BLACK
6
CONTINUOUS
10
128.874
20
-57.1308
11
128.754
21
-57.2064
0
LINE
8
BLACK
6
CONTINUOUS
10
128.754
20
-57.2064
11
128.618
21
-57.2454
0
LINE
8
BLACK
6
CONTINUOUS
10
128.618
20
-57.2454
11
128.55
21
-57.245
0
LINE
8
BLACK
6
CONTINUOUS
10
128.55
20
-57.245
11
128.55
21
-57.25
0
LINE
8
BLACK
6
CONTINUOUS
10
128.55
20
-57.25
11
128
21
-57.25
0
LINE
8
BLACK
6
CONTINUOUS
10
128
20
-57.25
11
128
21
-55.75
0
LINE
8
BLACK
6
CONTINUOUS
10
128
20
-55.75
11
128.55
21
-55.75
0
LINE
8
BLACK
6
CONTINUOUS
10
128.55
20
-55.75
11
128.55
21
-55.755
0
LINE
8
BLACK
6
CONTINUOUS
10
127.75
20
-57.25
11
126.75
21
-57.25
0
LINE
8
BLACK
6
CONTINUOUS
10
126.75
20
-57.25
11
126.75
21
-55.75
0
LINE
8
BLACK
6
CONTINUOUS
10
126.75
20
-55.75
11
127.75
21
-55.75
0
LINE
8
BLACK
6
CONTINUOUS
10
127.75
20
-55.75
11
127.75
21
-57.25
0
LINE
8
BLACK
6
CONTINUOUS
10
126.5
20
-57.25
11
125.95
21
-57.25
0
LINE
8
BLACK
6
CONTINUOUS
10
125.95
20
-57.25
11
125.95
21
-57.245
0
LINE
8
BLACK
6
CONTINUOUS
10
125.95
20
-57.245
11
125.876
21
-57.2445
0
LINE
8
BLACK
6
CONTINUOUS
10
125.876
20
-57.2445
11
125.74
21
-57.2039
0
LINE
8
BLACK
6
CONTINUOUS
10
125.74
20
-57.2039
11
125.621
21
-57.1268
0
LINE
8
BLACK
6
CONTINUOUS
10
125.621
20
-57.1268
11
125.529
21
-57.0194
0
LINE
8
BLACK
6
CONTINUOUS
10
125.529
20
-57.0194
11
125.47
21
-56.8903
0
LINE
8
BLACK
6
CONTINUOUS
10
125.47
20
-56.8903
11
125.45
21
-56.75
0
LINE
8
BLACK
6
CONTINUOUS
10
125.45
20
-56.75
11
125.45
21
-56.25
0
LINE
8
BLACK
6
CONTINUOUS
10
125.45
20
-56.25
11
125.45
21
-56.2378
0
LINE
8
BLACK
6
CONTINUOUS
10
125.45
20
-56.2378
11
125.474
21
-56.098
0
LINE
8
BLACK
6
CONTINUOUS
10
125.474
20
-56.098
11
125.535
21
-55.9704
0
LINE
8
BLACK
6
CONTINUOUS
10
125.535
20
-55.9704
11
125.631
21
-55.8653
0
LINE
8
BLACK
6
CONTINUOUS
10
125.631
20
-55.8653
11
125.751
21
-55.7911
0
LINE
8
BLACK
6
CONTINUOUS
10
125.751
20
-55.7911
11
125.888
21
-55.7538
0
LINE
8
BLACK
6
CONTINUOUS
10
125.888
20
-55.7538
11
125.95
21
-55.755
0
LINE
8
BLACK
6
CONTINUOUS
10
125.95
20
-55.755
11
125.95
21
-55.75
0
LINE
8
BLACK
6
CONTINUOUS
10
125.95
20
-55.75
11
126.5
21
-55.75
0
LINE
8
BLACK
6
CONTINUOUS
10
126.5
20
-55.75
11
126.5
21
-57.25
0
LINE
8
BLACK
6
CONTINUOUS
10
113.027
20
-55.0867
11
113.096
21
-55.1391
0
LINE
8
BLACK
6
CONTINUOUS
10
113.096
20
-55.1391
11
113.761
21
-55.8044
0
LINE
8
BLACK
6
CONTINUOUS
10
113.761
20
-55.8044
11
113.813
21
-55.8726
0
LINE
8
BLACK
6
CONTINUOUS
10
113.813
20
-55.8726
11
113.852
21
-55.9802
0
LINE
8
BLACK
6
CONTINUOUS
10
113.852
20
-55.9802
11
113.852
21
-56.0947
0
LINE
8
BLACK
6
CONTINUOUS
10
113.852
20
-56.0947
11
113.813
21
-56.2022
0
LINE
8
BLACK
6
CONTINUOUS
10
113.813
20
-56.2022
11
113.761
21
-56.2705
0
LINE
8
BLACK
6
CONTINUOUS
10
113.761
20
-56.2705
11
113.096
21
-56.9357
0
LINE
8
BLACK
6
CONTINUOUS
10
113.096
20
-56.9357
11
113.027
21
-56.9881
0
LINE
8
BLACK
6
CONTINUOUS
10
113.027
20
-56.9881
11
112.92
21
-57.0273
0
LINE
8
BLACK
6
CONTINUOUS
10
112.92
20
-57.0273
11
112.805
21
-57.0273
0
LINE
8
BLACK
6
CONTINUOUS
10
112.805
20
-57.0273
11
112.698
21
-56.9881
0
LINE
8
BLACK
6
CONTINUOUS
10
112.698
20
-56.9881
11
112.63
21
-56.9357
0
LINE
8
BLACK
6
CONTINUOUS
10
112.63
20
-56.9357
11
111.964
21
-56.2705
0
LINE
8
BLACK
6
CONTINUOUS
10
111.964
20
-56.2705
11
111.912
21
-56.2022
0
LINE
8
BLACK
6
CONTINUOUS
10
111.912
20
-56.2022
11
111.873
21
-56.0947
0
LINE
8
BLACK
6
CONTINUOUS
10
111.873
20
-56.0947
11
111.873
21
-55.9802
0
LINE
8
BLACK
6
CONTINUOUS
10
111.873
20
-55.9802
11
111.912
21
-55.8726
0
LINE
8
BLACK
6
CONTINUOUS
10
111.912
20
-55.8726
11
111.964
21
-55.8044
0
LINE
8
BLACK
6
CONTINUOUS
10
111.964
20
-55.8044
11
112.63
21
-55.1391
0
LINE
8
BLACK
6
CONTINUOUS
10
112.63
20
-55.1391
11
112.698
21
-55.0867
0
LINE
8
BLACK
6
CONTINUOUS
10
112.698
20
-55.0867
11
112.805
21
-55.0476
0
LINE
8
BLACK
6
CONTINUOUS
10
112.805
20
-55.0476
11
112.92
21
-55.0476
0
LINE
8
BLACK
6
CONTINUOUS
10
112.92
20
-55.0476
11
113.027
21
-55.0867
0
LINE
8
BLACK
6
CONTINUOUS
10
143.081
20
-55.3551
11
143.233
21
-55.3932
0
LINE
8
BLACK
6
CONTINUOUS
10
143.233
20
-55.3932
11
143.371
21
-55.4663
0
LINE
8
BLACK
6
CONTINUOUS
10
143.371
20
-55.4663
11
143.488
21
-55.5701
0
LINE
8
BLACK
6
CONTINUOUS
10
143.488
20
-55.5701
11
143.576
21
-55.6989
0
LINE
8
BLACK
6
CONTINUOUS
10
143.576
20
-55.6989
11
143.631
21
-55.845
0
LINE
8
BLACK
6
CONTINUOUS
10
143.631
20
-55.845
11
143.65
21
-56
0
LINE
8
BLACK
6
CONTINUOUS
10
143.65
20
-56
11
143.65
21
-56.0136
0
LINE
8
BLACK
6
CONTINUOUS
10
143.65
20
-56.0136
11
143.628
21
-56.1682
0
LINE
8
BLACK
6
CONTINUOUS
10
143.628
20
-56.1682
11
143.57
21
-56.3131
0
LINE
8
BLACK
6
CONTINUOUS
10
143.57
20
-56.3131
11
143.478
21
-56.44
0
LINE
8
BLACK
6
CONTINUOUS
10
143.478
20
-56.44
11
143.36
21
-56.5414
0
LINE
8
BLACK
6
CONTINUOUS
10
143.36
20
-56.5414
11
143.22
21
-56.6116
0
LINE
8
BLACK
6
CONTINUOUS
10
143.22
20
-56.6116
11
143.068
21
-56.6464
0
LINE
8
BLACK
6
CONTINUOUS
10
143.068
20
-56.6464
11
142.912
21
-56.644
0
LINE
8
BLACK
6
CONTINUOUS
10
142.912
20
-56.644
11
142.761
21
-56.6044
0
LINE
8
BLACK
6
CONTINUOUS
10
142.761
20
-56.6044
11
142.623
21
-56.5298
0
LINE
8
BLACK
6
CONTINUOUS
10
142.623
20
-56.5298
11
142.508
21
-56.4247
0
LINE
8
BLACK
6
CONTINUOUS
10
142.508
20
-56.4247
11
142.421
21
-56.2951
0
LINE
8
BLACK
6
CONTINUOUS
10
142.421
20
-56.2951
11
142.367
21
-56.1484
0
LINE
8
BLACK
6
CONTINUOUS
10
142.367
20
-56.1484
11
142.35
21
-55.9932
0
LINE
8
BLACK
6
CONTINUOUS
10
142.35
20
-55.9932
11
142.37
21
-55.8384
0
LINE
8
BLACK
6
CONTINUOUS
10
142.37
20
-55.8384
11
142.427
21
-55.6928
0
LINE
8
BLACK
6
CONTINUOUS
10
142.427
20
-55.6928
11
142.517
21
-55.5651
0
LINE
8
BLACK
6
CONTINUOUS
10
142.517
20
-55.5651
11
142.635
21
-55.4624
0
LINE
8
BLACK
6
CONTINUOUS
10
142.635
20
-55.4624
11
142.773
21
-55.3908
0
LINE
8
BLACK
6
CONTINUOUS
10
142.773
20
-55.3908
11
142.925
21
-55.3543
0
LINE
8
BLACK
6
CONTINUOUS
10
142.925
20
-55.3543
11
143.081
21
-55.3551
0
LINE
8
BLACK
6
CONTINUOUS
10
101.081
20
-55.3551
11
101.233
21
-55.3932
0
LINE
8
BLACK
6
CONTINUOUS
10
101.233
20
-55.3932
11
101.371
21
-55.4663
0
LINE
8
BLACK
6
CONTINUOUS
10
101.371
20
-55.4663
11
101.488
21
-55.5701
0
LINE
8
BLACK
6
CONTINUOUS
10
101.488
20
-55.5701
11
101.576
21
-55.6989
0
LINE
8
BLACK
6
CONTINUOUS
10
101.576
20
-55.6989
11
101.631
21
-55.845
0
LINE
8
BLACK
6
CONTINUOUS
10
101.631
20
-55.845
11
101.65
21
-56
0
LINE
8
BLACK
6
CONTINUOUS
10
101.65
20
-56
11
101.65
21
-56.0136
0
LINE
8
BLACK
6
CONTINUOUS
10
101.65
20
-56.0136
11
101.628
21
-56.1682
0
LINE
8
BLACK
6
CONTINUOUS
10
101.628
20
-56.1682
11
101.57
21
-56.3131
0
LINE
8
BLACK
6
CONTINUOUS
10
101.57
20
-56.3131
11
101.478
21
-56.44
0
LINE
8
BLACK
6
CONTINUOUS
10
101.478
20
-56.44
11
101.36
21
-56.5414
0
LINE
8
BLACK
6
CONTINUOUS
10
101.36
20
-56.5414
11
101.22
21
-56.6116
0
LINE
8
BLACK
6
CONTINUOUS
10
101.22
20
-56.6116
11
101.068
21
-56.6464
0
LINE
8
BLACK
6
CONTINUOUS
10
101.068
20
-56.6464
11
100.912
21
-56.644
0
LINE
8
BLACK
6
CONTINUOUS
10
100.912
20
-56.644
11
100.761
21
-56.6044
0
LINE
8
BLACK
6
CONTINUOUS
10
100.761
20
-56.6044
11
100.623
21
-56.5298
0
LINE
8
BLACK
6
CONTINUOUS
10
100.623
20
-56.5298
11
100.508
21
-56.4247
0
LINE
8
BLACK
6
CONTINUOUS
10
100.508
20
-56.4247
11
100.421
21
-56.2951
0
LINE
8
BLACK
6
CONTINUOUS
10
100.421
20
-56.2951
11
100.367
21
-56.1484
0
LINE
8
BLACK
6
CONTINUOUS
10
100.367
20
-56.1484
11
100.35
21
-55.9932
0
LINE
8
BLACK
6
CONTINUOUS
10
100.35
20
-55.9932
11
100.37
21
-55.8384
0
LINE
8
BLACK
6
CONTINUOUS
10
100.37
20
-55.8384
11
100.427
21
-55.6928
0
LINE
8
BLACK
6
CONTINUOUS
10
100.427
20
-55.6928
11
100.517
21
-55.5651
0
LINE
8
BLACK
6
CONTINUOUS
10
100.517
20
-55.5651
11
100.635
21
-55.4624
0
LINE
8
BLACK
6
CONTINUOUS
10
100.635
20
-55.4624
11
100.773
21
-55.3908
0
LINE
8
BLACK
6
CONTINUOUS
10
100.773
20
-55.3908
11
100.925
21
-55.3543
0
LINE
8
BLACK
6
CONTINUOUS
10
100.925
20
-55.3543
11
101.081
21
-55.3551
0
LINE
8
BLACK
6
CONTINUOUS
10
121.008
20
-53.1617
11
121.14
21
-53.2114
0
LINE
8
BLACK
6
CONTINUOUS
10
121.14
20
-53.2114
11
121.254
21
-53.2964
0
LINE
8
BLACK
6
CONTINUOUS
10
121.254
20
-53.2964
11
121.339
21
-53.4097
0
LINE
8
BLACK
6
CONTINUOUS
10
121.339
20
-53.4097
11
121.388
21
-53.5424
0
LINE
8
BLACK
6
CONTINUOUS
10
121.388
20
-53.5424
11
121.4
21
-53.6497
0
LINE
8
BLACK
6
CONTINUOUS
10
121.4
20
-53.6497
11
121.4
21
-54.5503
0
LINE
8
BLACK
6
CONTINUOUS
10
121.4
20
-54.5503
11
121.388
21
-54.6576
0
LINE
8
BLACK
6
CONTINUOUS
10
121.388
20
-54.6576
11
121.339
21
-54.7903
0
LINE
8
BLACK
6
CONTINUOUS
10
121.339
20
-54.7903
11
121.254
21
-54.9036
0
LINE
8
BLACK
6
CONTINUOUS
10
121.254
20
-54.9036
11
121.14
21
-54.9886
0
LINE
8
BLACK
6
CONTINUOUS
10
121.14
20
-54.9886
11
121.008
21
-55.0383
0
LINE
8
BLACK
6
CONTINUOUS
10
121.008
20
-55.0383
11
120.9
21
-55.05
0
LINE
8
BLACK
6
CONTINUOUS
10
120.9
20
-55.05
11
120
21
-55.05
0
LINE
8
BLACK
6
CONTINUOUS
10
120
20
-55.05
11
119.892
21
-55.0383
0
LINE
8
BLACK
6
CONTINUOUS
10
119.892
20
-55.0383
11
119.76
21
-54.9886
0
LINE
8
BLACK
6
CONTINUOUS
10
119.76
20
-54.9886
11
119.646
21
-54.9036
0
LINE
8
BLACK
6
CONTINUOUS
10
119.646
20
-54.9036
11
119.561
21
-54.7903
0
LINE
8
BLACK
6
CONTINUOUS
10
119.561
20
-54.7903
11
119.512
21
-54.6576
0
LINE
8
BLACK
6
CONTINUOUS
10
119.512
20
-54.6576
11
119.5
21
-54.5503
0
LINE
8
BLACK
6
CONTINUOUS
10
119.5
20
-54.5503
11
119.5
21
-53.6497
0
LINE
8
BLACK
6
CONTINUOUS
10
119.5
20
-53.6497
11
119.512
21
-53.5424
0
LINE
8
BLACK
6
CONTINUOUS
10
119.512
20
-53.5424
11
119.561
21
-53.4097
0
LINE
8
BLACK
6
CONTINUOUS
10
119.561
20
-53.4097
11
119.646
21
-53.2964
0
LINE
8
BLACK
6
CONTINUOUS
10
119.646
20
-53.2964
11
119.76
21
-53.2114
0
LINE
8
BLACK
6
CONTINUOUS
10
119.76
20
-53.2114
11
119.892
21
-53.1617
0
LINE
8
BLACK
6
CONTINUOUS
10
119.892
20
-53.1617
11
120
21
-53.15
0
LINE
8
BLACK
6
CONTINUOUS
10
120
20
-53.15
11
120.9
21
-53.15
0
LINE
8
BLACK
6
CONTINUOUS
10
120.9
20
-53.15
11
121.008
21
-53.1617
0
LINE
8
BLACK
6
CONTINUOUS
10
108.308
20
-53.1617
11
108.44
21
-53.2114
0
LINE
8
BLACK
6
CONTINUOUS
10
108.44
20
-53.2114
11
108.554
21
-53.2964
0
LINE
8
BLACK
6
CONTINUOUS
10
108.554
20
-53.2964
11
108.639
21
-53.4097
0
LINE
8
BLACK
6
CONTINUOUS
10
108.639
20
-53.4097
11
108.688
21
-53.5424
0
LINE
8
BLACK
6
CONTINUOUS
10
108.688
20
-53.5424
11
108.7
21
-53.6497
0
LINE
8
BLACK
6
CONTINUOUS
10
108.7
20
-53.6497
11
108.7
21
-54.5503
0
LINE
8
BLACK
6
CONTINUOUS
10
108.7
20
-54.5503
11
108.688
21
-54.6576
0
LINE
8
BLACK
6
CONTINUOUS
10
108.688
20
-54.6576
11
108.639
21
-54.7903
0
LINE
8
BLACK
6
CONTINUOUS
10
108.639
20
-54.7903
11
108.554
21
-54.9036
0
LINE
8
BLACK
6
CONTINUOUS
10
108.554
20
-54.9036
11
108.44
21
-54.9886
0
LINE
8
BLACK
6
CONTINUOUS
10
108.44
20
-54.9886
11
108.308
21
-55.0383
0
LINE
8
BLACK
6
CONTINUOUS
10
108.308
20
-55.0383
11
108.2
21
-55.05
0
LINE
8
BLACK
6
CONTINUOUS
10
108.2
20
-55.05
11
107.3
21
-55.05
0
LINE
8
BLACK
6
CONTINUOUS
10
107.3
20
-55.05
11
107.192
21
-55.0383
0
LINE
8
BLACK
6
CONTINUOUS
10
107.192
20
-55.0383
11
107.06
21
-54.9886
0
LINE
8
BLACK
6
CONTINUOUS
10
107.06
20
-54.9886
11
106.946
21
-54.9036
0
LINE
8
BLACK
6
CONTINUOUS
10
106.946
20
-54.9036
11
106.861
21
-54.7903
0
LINE
8
BLACK
6
CONTINUOUS
10
106.861
20
-54.7903
11
106.812
21
-54.6576
0
LINE
8
BLACK
6
CONTINUOUS
10
106.812
20
-54.6576
11
106.8
21
-54.5503
0
LINE
8
BLACK
6
CONTINUOUS
10
106.8
20
-54.5503
11
106.8
21
-53.6497
0
LINE
8
BLACK
6
CONTINUOUS
10
106.8
20
-53.6497
11
106.812
21
-53.5424
0
LINE
8
BLACK
6
CONTINUOUS
10
106.812
20
-53.5424
11
106.861
21
-53.4097
0
LINE
8
BLACK
6
CONTINUOUS
10
106.861
20
-53.4097
11
106.946
21
-53.2964
0
LINE
8
BLACK
6
CONTINUOUS
10
106.946
20
-53.2964
11
107.06
21
-53.2114
0
LINE
8
BLACK
6
CONTINUOUS
10
107.06
20
-53.2114
11
107.192
21
-53.1617
0
LINE
8
BLACK
6
CONTINUOUS
10
107.192
20
-53.1617
11
107.3
21
-53.15
0
LINE
8
BLACK
6
CONTINUOUS
10
107.3
20
-53.15
11
108.2
21
-53.15
0
LINE
8
BLACK
6
CONTINUOUS
10
108.2
20
-53.15
11
108.308
21
-53.1617
0
LINE
8
BLACK
6
CONTINUOUS
10
124.108
20
-53.1617
11
124.24
21
-53.2114
0
LINE
8
BLACK
6
CONTINUOUS
10
124.24
20
-53.2114
11
124.354
21
-53.2964
0
LINE
8
BLACK
6
CONTINUOUS
10
124.354
20
-53.2964
11
124.439
21
-53.4097
0
LINE
8
BLACK
6
CONTINUOUS
10
124.439
20
-53.4097
11
124.488
21
-53.5424
0
LINE
8
BLACK
6
CONTINUOUS
10
124.488
20
-53.5424
11
124.5
21
-53.6497
0
LINE
8
BLACK
6
CONTINUOUS
10
124.5
20
-53.6497
11
124.5
21
-54.5503
0
LINE
8
BLACK
6
CONTINUOUS
10
124.5
20
-54.5503
11
124.488
21
-54.6576
0
LINE
8
BLACK
6
CONTINUOUS
10
124.488
20
-54.6576
11
124.439
21
-54.7903
0
LINE
8
BLACK
6
CONTINUOUS
10
124.439
20
-54.7903
11
124.354
21
-54.9036
0
LINE
8
BLACK
6
CONTINUOUS
10
124.354
20
-54.9036
11
124.24
21
-54.9886
0
LINE
8
BLACK
6
CONTINUOUS
10
124.24
20
-54.9886
11
124.108
21
-55.0383
0
LINE
8
BLACK
6
CONTINUOUS
10
124.108
20
-55.0383
11
124
21
-55.05
0
LINE
8
BLACK
6
CONTINUOUS
10
124
20
-55.05
11
123.1
21
-55.05
0
LINE
8
BLACK
6
CONTINUOUS
10
123.1
20
-55.05
11
122.992
21
-55.0383
0
LINE
8
BLACK
6
CONTINUOUS
10
122.992
20
-55.0383
11
122.86
21
-54.9886
0
LINE
8
BLACK
6
CONTINUOUS
10
122.86
20
-54.9886
11
122.746
21
-54.9036
0
LINE
8
BLACK
6
CONTINUOUS
10
122.746
20
-54.9036
11
122.661
21
-54.7903
0
LINE
8
BLACK
6
CONTINUOUS
10
122.661
20
-54.7903
11
122.612
21
-54.6576
0
LINE
8
BLACK
6
CONTINUOUS
10
122.612
20
-54.6576
11
122.6
21
-54.5503
0
LINE
8
BLACK
6
CONTINUOUS
10
122.6
20
-54.5503
11
122.6
21
-53.6497
0
LINE
8
BLACK
6
CONTINUOUS
10
122.6
20
-53.6497
11
122.612
21
-53.5424
0
LINE
8
BLACK
6
CONTINUOUS
10
122.612
20
-53.5424
11
122.661
21
-53.4097
0
LINE
8
BLACK
6
CONTINUOUS
10
122.661
20
-53.4097
11
122.746
21
-53.2964
0
LINE
8
BLACK
6
CONTINUOUS
10
122.746
20
-53.2964
11
122.86
21
-53.2114
0
LINE
8
BLACK
6
CONTINUOUS
10
122.86
20
-53.2114
11
122.992
21
-53.1617
0
LINE
8
BLACK
6
CONTINUOUS
10
122.992
20
-53.1617
11
123.1
21
-53.15
0
LINE
8
BLACK
6
CONTINUOUS
10
123.1
20
-53.15
11
124
21
-53.15
0
LINE
8
BLACK
6
CONTINUOUS
10
124
20
-53.15
11
124.108
21
-53.1617
0
LINE
8
BLACK
6
CONTINUOUS
10
136.808
20
-53.1617
11
136.94
21
-53.2114
0
LINE
8
BLACK
6
CONTINUOUS
10
136.94
20
-53.2114
11
137.054
21
-53.2964
0
LINE
8
BLACK
6
CONTINUOUS
10
137.054
20
-53.2964
11
137.139
21
-53.4097
0
LINE
8
BLACK
6
CONTINUOUS
10
137.139
20
-53.4097
11
137.188
21
-53.5424
0
LINE
8
BLACK
6
CONTINUOUS
10
137.188
20
-53.5424
11
137.2
21
-53.6497
0
LINE
8
BLACK
6
CONTINUOUS
10
137.2
20
-53.6497
11
137.2
21
-54.5503
0
LINE
8
BLACK
6
CONTINUOUS
10
137.2
20
-54.5503
11
137.188
21
-54.6576
0
LINE
8
BLACK
6
CONTINUOUS
10
137.188
20
-54.6576
11
137.139
21
-54.7903
0
LINE
8
BLACK
6
CONTINUOUS
10
137.139
20
-54.7903
11
137.054
21
-54.9036
0
LINE
8
BLACK
6
CONTINUOUS
10
137.054
20
-54.9036
11
136.94
21
-54.9886
0
LINE
8
BLACK
6
CONTINUOUS
10
136.94
20
-54.9886
11
136.808
21
-55.0383
0
LINE
8
BLACK
6
CONTINUOUS
10
136.808
20
-55.0383
11
136.7
21
-55.05
0
LINE
8
BLACK
6
CONTINUOUS
10
136.7
20
-55.05
11
135.8
21
-55.05
0
LINE
8
BLACK
6
CONTINUOUS
10
135.8
20
-55.05
11
135.692
21
-55.0383
0
LINE
8
BLACK
6
CONTINUOUS
10
135.692
20
-55.0383
11
135.56
21
-54.9886
0
LINE
8
BLACK
6
CONTINUOUS
10
135.56
20
-54.9886
11
135.446
21
-54.9036
0
LINE
8
BLACK
6
CONTINUOUS
10
135.446
20
-54.9036
11
135.361
21
-54.7903
0
LINE
8
BLACK
6
CONTINUOUS
10
135.361
20
-54.7903
11
135.312
21
-54.6576
0
LINE
8
BLACK
6
CONTINUOUS
10
135.312
20
-54.6576
11
135.3
21
-54.5503
0
LINE
8
BLACK
6
CONTINUOUS
10
135.3
20
-54.5503
11
135.3
21
-53.6497
0
LINE
8
BLACK
6
CONTINUOUS
10
135.3
20
-53.6497
11
135.312
21
-53.5424
0
LINE
8
BLACK
6
CONTINUOUS
10
135.312
20
-53.5424
11
135.361
21
-53.4097
0
LINE
8
BLACK
6
CONTINUOUS
10
135.361
20
-53.4097
11
135.446
21
-53.2964
0
LINE
8
BLACK
6
CONTINUOUS
10
135.446
20
-53.2964
11
135.56
21
-53.2114
0
LINE
8
BLACK
6
CONTINUOUS
10
135.56
20
-53.2114
11
135.692
21
-53.1617
0
LINE
8
BLACK
6
CONTINUOUS
10
135.692
20
-53.1617
11
135.8
21
-53.15
0
LINE
8
BLACK
6
CONTINUOUS
10
135.8
20
-53.15
11
136.7
21
-53.15
0
LINE
8
BLACK
6
CONTINUOUS
10
136.7
20
-53.15
11
136.808
21
-53.1617
0
LINE
8
BLACK
6
CONTINUOUS
10
103.157
20
-51.2069
11
103.42
21
-51.2497
0
LINE
8
BLACK
6
CONTINUOUS
10
103.42
20
-51.2497
11
103.674
21
-51.3311
0
LINE
8
BLACK
6
CONTINUOUS
10
103.674
20
-51.3311
11
103.914
21
-51.4491
0
LINE
8
BLACK
6
CONTINUOUS
10
103.914
20
-51.4491
11
104.133
21
-51.6011
0
LINE
8
BLACK
6
CONTINUOUS
10
104.133
20
-51.6011
11
104.327
21
-51.7839
0
LINE
8
BLACK
6
CONTINUOUS
10
104.327
20
-51.7839
11
104.492
21
-51.9935
0
LINE
8
BLACK
6
CONTINUOUS
10
104.492
20
-51.9935
11
104.625
21
-52.2251
0
LINE
8
BLACK
6
CONTINUOUS
10
104.625
20
-52.2251
11
104.721
21
-52.4737
0
LINE
8
BLACK
6
CONTINUOUS
10
104.721
20
-52.4737
11
104.78
21
-52.7339
0
LINE
8
BLACK
6
CONTINUOUS
10
104.78
20
-52.7339
11
104.8
21
-53
0
LINE
8
BLACK
6
CONTINUOUS
10
104.8
20
-53
11
104.798
21
-53.0942
0
LINE
8
BLACK
6
CONTINUOUS
10
104.798
20
-53.0942
11
104.764
21
-53.3589
0
LINE
8
BLACK
6
CONTINUOUS
10
104.764
20
-53.3589
11
104.691
21
-53.6156
0
LINE
8
BLACK
6
CONTINUOUS
10
104.691
20
-53.6156
11
104.582
21
-53.8589
0
LINE
8
BLACK
6
CONTINUOUS
10
104.582
20
-53.8589
11
104.438
21
-54.0833
0
LINE
8
BLACK
6
CONTINUOUS
10
104.438
20
-54.0833
11
104.262
21
-54.2839
0
LINE
8
BLACK
6
CONTINUOUS
10
104.262
20
-54.2839
11
104.058
21
-54.4562
0
LINE
8
BLACK
6
CONTINUOUS
10
104.058
20
-54.4562
11
103.831
21
-54.5966
0
LINE
8
BLACK
6
CONTINUOUS
10
103.831
20
-54.5966
11
103.586
21
-54.7019
0
LINE
8
BLACK
6
CONTINUOUS
10
103.586
20
-54.7019
11
103.328
21
-54.7699
0
LINE
8
BLACK
6
CONTINUOUS
10
103.328
20
-54.7699
11
103.063
21
-54.7989
0
LINE
8
BLACK
6
CONTINUOUS
10
103.063
20
-54.7989
11
102.796
21
-54.7884
0
LINE
8
BLACK
6
CONTINUOUS
10
102.796
20
-54.7884
11
102.534
21
-54.7387
0
LINE
8
BLACK
6
CONTINUOUS
10
102.534
20
-54.7387
11
102.282
21
-54.6507
0
LINE
8
BLACK
6
CONTINUOUS
10
102.282
20
-54.6507
11
102.046
21
-54.5265
0
LINE
8
BLACK
6
CONTINUOUS
10
102.046
20
-54.5265
11
101.831
21
-54.3687
0
LINE
8
BLACK
6
CONTINUOUS
10
101.831
20
-54.3687
11
101.642
21
-54.1809
0
LINE
8
BLACK
6
CONTINUOUS
10
101.642
20
-54.1809
11
101.482
21
-53.9671
0
LINE
8
BLACK
6
CONTINUOUS
10
101.482
20
-53.9671
11
101.356
21
-53.7321
0
LINE
8
BLACK
6
CONTINUOUS
10
101.356
20
-53.7321
11
101.265
21
-53.481
0
LINE
8
BLACK
6
CONTINUOUS
10
101.265
20
-53.481
11
101.213
21
-53.2194
0
LINE
8
BLACK
6
CONTINUOUS
10
101.213
20
-53.2194
11
101.201
21
-52.9529
0
LINE
8
BLACK
6
CONTINUOUS
10
101.201
20
-52.9529
11
101.227
21
-52.6874
0
LINE
8
BLACK
6
CONTINUOUS
10
101.227
20
-52.6874
11
101.293
21
-52.4289
0
LINE
8
BLACK
6
CONTINUOUS
10
101.293
20
-52.4289
11
101.396
21
-52.1828
0
LINE
8
BLACK
6
CONTINUOUS
10
101.396
20
-52.1828
11
101.535
21
-51.9547
0
LINE
8
BLACK
6
CONTINUOUS
10
101.535
20
-51.9547
11
101.705
21
-51.7496
0
LINE
8
BLACK
6
CONTINUOUS
10
101.705
20
-51.7496
11
101.904
21
-51.572
0
LINE
8
BLACK
6
CONTINUOUS
10
101.904
20
-51.572
11
102.127
21
-51.4257
0
LINE
8
BLACK
6
CONTINUOUS
10
102.127
20
-51.4257
11
102.37
21
-51.314
0
LINE
8
BLACK
6
CONTINUOUS
10
102.37
20
-51.314
11
102.626
21
-51.2393
0
LINE
8
BLACK
6
CONTINUOUS
10
102.626
20
-51.2393
11
102.89
21
-51.2034
0
LINE
8
BLACK
6
CONTINUOUS
10
102.89
20
-51.2034
11
103.157
21
-51.2069
0
LINE
8
BLACK
6
CONTINUOUS
10
141.157
20
-51.2069
11
141.42
21
-51.2497
0
LINE
8
BLACK
6
CONTINUOUS
10
141.42
20
-51.2497
11
141.674
21
-51.3311
0
LINE
8
BLACK
6
CONTINUOUS
10
141.674
20
-51.3311
11
141.914
21
-51.4491
0
LINE
8
BLACK
6
CONTINUOUS
10
141.914
20
-51.4491
11
142.133
21
-51.6011
0
LINE
8
BLACK
6
CONTINUOUS
10
142.133
20
-51.6011
11
142.327
21
-51.7839
0
LINE
8
BLACK
6
CONTINUOUS
10
142.327
20
-51.7839
11
142.492
21
-51.9935
0
LINE
8
BLACK
6
CONTINUOUS
10
142.492
20
-51.9935
11
142.625
21
-52.2251
0
LINE
8
BLACK
6
CONTINUOUS
10
142.625
20
-52.2251
11
142.721
21
-52.4737
0
LINE
8
BLACK
6
CONTINUOUS
10
142.721
20
-52.4737
11
142.78
21
-52.7339
0
LINE
8
BLACK
6
CONTINUOUS
10
142.78
20
-52.7339
11
142.8
21
-53
0
LINE
8
BLACK
6
CONTINUOUS
10
142.8
20
-53
11
142.798
21
-53.0942
0
LINE
8
BLACK
6
CONTINUOUS
10
142.798
20
-53.0942
11
142.764
21
-53.3589
0
LINE
8
BLACK
6
CONTINUOUS
10
142.764
20
-53.3589
11
142.691
21
-53.6156
0
LINE
8
BLACK
6
CONTINUOUS
10
142.691
20
-53.6156
11
142.582
21
-53.8589
0
LINE
8
BLACK
6
CONTINUOUS
10
142.582
20
-53.8589
11
142.438
21
-54.0833
0
LINE
8
BLACK
6
CONTINUOUS
10
142.438
20
-54.0833
11
142.262
21
-54.2839
0
LINE
8
BLACK
6
CONTINUOUS
10
142.262
20
-54.2839
11
142.058
21
-54.4562
0
LINE
8
BLACK
6
CONTINUOUS
10
142.058
20
-54.4562
11
141.831
21
-54.5966
0
LINE
8
BLACK
6
CONTINUOUS
10
141.831
20
-54.5966
11
141.586
21
-54.7019
0
LINE
8
BLACK
6
CONTINUOUS
10
141.586
20
-54.7019
11
141.328
21
-54.7699
0
LINE
8
BLACK
6
CONTINUOUS
10
141.328
20
-54.7699
11
141.063
21
-54.7989
0
LINE
8
BLACK
6
CONTINUOUS
10
141.063
20
-54.7989
11
140.796
21
-54.7884
0
LINE
8
BLACK
6
CONTINUOUS
10
140.796
20
-54.7884
11
140.534
21
-54.7387
0
LINE
8
BLACK
6
CONTINUOUS
10
140.534
20
-54.7387
11
140.282
21
-54.6507
0
LINE
8
BLACK
6
CONTINUOUS
10
140.282
20
-54.6507
11
140.046
21
-54.5265
0
LINE
8
BLACK
6
CONTINUOUS
10
140.046
20
-54.5265
11
139.831
21
-54.3687
0
LINE
8
BLACK
6
CONTINUOUS
10
139.831
20
-54.3687
11
139.642
21
-54.1809
0
LINE
8
BLACK
6
CONTINUOUS
10
139.642
20
-54.1809
11
139.482
21
-53.9671
0
LINE
8
BLACK
6
CONTINUOUS
10
139.482
20
-53.9671
11
139.356
21
-53.7321
0
LINE
8
BLACK
6
CONTINUOUS
10
139.356
20
-53.7321
11
139.265
21
-53.481
0
LINE
8
BLACK
6
CONTINUOUS
10
139.265
20
-53.481
11
139.213
21
-53.2194
0
LINE
8
BLACK
6
CONTINUOUS
10
139.213
20
-53.2194
11
139.201
21
-52.9529
0
LINE
8
BLACK
6
CONTINUOUS
10
139.201
20
-52.9529
11
139.227
21
-52.6874
0
LINE
8
BLACK
6
CONTINUOUS
10
139.227
20
-52.6874
11
139.293
21
-52.4289
0
LINE
8
BLACK
6
CONTINUOUS
10
139.293
20
-52.4289
11
139.396
21
-52.1828
0
LINE
8
BLACK
6
CONTINUOUS
10
139.396
20
-52.1828
11
139.535
21
-51.9547
0
LINE
8
BLACK
6
CONTINUOUS
10
139.535
20
-51.9547
11
139.705
21
-51.7496
0
LINE
8
BLACK
6
CONTINUOUS
10
139.705
20
-51.7496
11
139.904
21
-51.572
0
LINE
8
BLACK
6
CONTINUOUS
10
139.904
20
-51.572
11
140.127
21
-51.4257
0
LINE
8
BLACK
6
CONTINUOUS
10
140.127
20
-51.4257
11
140.37
21
-51.314
0
LINE
8
BLACK
6
CONTINUOUS
10
140.37
20
-51.314
11
140.626
21
-51.2393
0
LINE
8
BLACK
6
CONTINUOUS
10
140.626
20
-51.2393
11
140.89
21
-51.2034
0
LINE
8
BLACK
6
CONTINUOUS
10
140.89
20
-51.2034
11
141.157
21
-51.2069
0
LINE
8
BLACK
6
CONTINUOUS
10
127.865
20
-52.6625
11
128.01
21
-52.7224
0
LINE
8
BLACK
6
CONTINUOUS
10
128.01
20
-52.7224
11
128.134
21
-52.8179
0
LINE
8
BLACK
6
CONTINUOUS
10
128.134
20
-52.8179
11
128.23
21
-52.9422
0
LINE
8
BLACK
6
CONTINUOUS
10
128.23
20
-52.9422
11
128.29
21
-53.087
0
LINE
8
BLACK
6
CONTINUOUS
10
128.29
20
-53.087
11
128.31
21
-53.2424
0
LINE
8
BLACK
6
CONTINUOUS
10
128.31
20
-53.2424
11
128.31
21
-53.9416
0
LINE
8
BLACK
6
CONTINUOUS
10
128.31
20
-53.9416
11
128.29
21
-54.097
0
LINE
8
BLACK
6
CONTINUOUS
10
128.29
20
-54.097
11
128.23
21
-54.2418
0
LINE
8
BLACK
6
CONTINUOUS
10
128.23
20
-54.2418
11
128.134
21
-54.3661
0
LINE
8
BLACK
6
CONTINUOUS
10
128.134
20
-54.3661
11
128.01
21
-54.4616
0
LINE
8
BLACK
6
CONTINUOUS
10
128.01
20
-54.4616
11
127.865
21
-54.5215
0
LINE
8
BLACK
6
CONTINUOUS
10
127.865
20
-54.5215
11
127.71
21
-54.542
0
LINE
8
BLACK
6
CONTINUOUS
10
127.71
20
-54.542
11
127.01
21
-54.542
0
LINE
8
BLACK
6
CONTINUOUS
10
127.01
20
-54.542
11
126.855
21
-54.5215
0
LINE
8
BLACK
6
CONTINUOUS
10
126.855
20
-54.5215
11
126.71
21
-54.4616
0
LINE
8
BLACK
6
CONTINUOUS
10
126.71
20
-54.4616
11
126.586
21
-54.3661
0
LINE
8
BLACK
6
CONTINUOUS
10
126.586
20
-54.3661
11
126.49
21
-54.2418
0
LINE
8
BLACK
6
CONTINUOUS
10
126.49
20
-54.2418
11
126.43
21
-54.097
0
LINE
8
BLACK
6
CONTINUOUS
10
126.43
20
-54.097
11
126.41
21
-53.9416
0
LINE
8
BLACK
6
CONTINUOUS
10
126.41
20
-53.9416
11
126.41
21
-53.2424
0
LINE
8
BLACK
6
CONTINUOUS
10
126.41
20
-53.2424
11
126.43
21
-53.087
0
LINE
8
BLACK
6
CONTINUOUS
10
126.43
20
-53.087
11
126.49
21
-52.9422
0
LINE
8
BLACK
6
CONTINUOUS
10
126.49
20
-52.9422
11
126.586
21
-52.8179
0
LINE
8
BLACK
6
CONTINUOUS
10
126.586
20
-52.8179
11
126.71
21
-52.7224
0
LINE
8
BLACK
6
CONTINUOUS
10
126.71
20
-52.7224
11
126.855
21
-52.6625
0
LINE
8
BLACK
6
CONTINUOUS
10
126.855
20
-52.6625
11
127.01
21
-52.642
0
LINE
8
BLACK
6
CONTINUOUS
10
127.01
20
-52.642
11
127.71
21
-52.642
0
LINE
8
BLACK
6
CONTINUOUS
10
127.71
20
-52.642
11
127.865
21
-52.6625
0
LINE
8
BLACK
6
CONTINUOUS
10
115.52
20
-52.7837
11
115.688
21
-52.8435
0
LINE
8
BLACK
6
CONTINUOUS
10
115.688
20
-52.8435
11
115.839
21
-52.9391
0
LINE
8
BLACK
6
CONTINUOUS
10
115.839
20
-52.9391
11
115.964
21
-53.0656
0
LINE
8
BLACK
6
CONTINUOUS
10
115.964
20
-53.0656
11
116.059
21
-53.2169
0
LINE
8
BLACK
6
CONTINUOUS
10
116.059
20
-53.2169
11
116.118
21
-53.3853
0
LINE
8
BLACK
6
CONTINUOUS
10
116.118
20
-53.3853
11
116.137
21
-53.5626
0
LINE
8
BLACK
6
CONTINUOUS
10
116.137
20
-53.5626
11
116.137
21
-53.5849
0
LINE
8
BLACK
6
CONTINUOUS
10
116.137
20
-53.5849
11
116.112
21
-53.7615
0
LINE
8
BLACK
6
CONTINUOUS
10
116.112
20
-53.7615
11
116.049
21
-53.9282
0
LINE
8
BLACK
6
CONTINUOUS
10
116.049
20
-53.9282
11
115.95
21
-54.0768
0
LINE
8
BLACK
6
CONTINUOUS
10
115.95
20
-54.0768
11
115.821
21
-54.1998
0
LINE
8
BLACK
6
CONTINUOUS
10
115.821
20
-54.1998
11
115.668
21
-54.2911
0
LINE
8
BLACK
6
CONTINUOUS
10
115.668
20
-54.2911
11
115.498
21
-54.3462
0
LINE
8
BLACK
6
CONTINUOUS
10
115.498
20
-54.3462
11
115.321
21
-54.3624
0
LINE
8
BLACK
6
CONTINUOUS
10
115.321
20
-54.3624
11
115.144
21
-54.3388
0
LINE
8
BLACK
6
CONTINUOUS
10
115.144
20
-54.3388
11
114.977
21
-54.2766
0
LINE
8
BLACK
6
CONTINUOUS
10
114.977
20
-54.2766
11
114.827
21
-54.179
0
LINE
8
BLACK
6
CONTINUOUS
10
114.827
20
-54.179
11
114.704
21
-54.0507
0
LINE
8
BLACK
6
CONTINUOUS
10
114.704
20
-54.0507
11
114.611
21
-53.8981
0
LINE
8
BLACK
6
CONTINUOUS
10
114.611
20
-53.8981
11
114.555
21
-53.7289
0
LINE
8
BLACK
6
CONTINUOUS
10
114.555
20
-53.7289
11
114.538
21
-53.5514
0
LINE
8
BLACK
6
CONTINUOUS
10
114.538
20
-53.5514
11
114.56
21
-53.3744
0
LINE
8
BLACK
6
CONTINUOUS
10
114.56
20
-53.3744
11
114.621
21
-53.2069
0
LINE
8
BLACK
6
CONTINUOUS
10
114.621
20
-53.2069
11
114.717
21
-53.0569
0
LINE
8
BLACK
6
CONTINUOUS
10
114.717
20
-53.0569
11
114.845
21
-52.9322
0
LINE
8
BLACK
6
CONTINUOUS
10
114.845
20
-52.9322
11
114.997
21
-52.8387
0
LINE
8
BLACK
6
CONTINUOUS
10
114.997
20
-52.8387
11
115.166
21
-52.7812
0
LINE
8
BLACK
6
CONTINUOUS
10
115.166
20
-52.7812
11
115.343
21
-52.7626
0
LINE
8
BLACK
6
CONTINUOUS
10
115.343
20
-52.7626
11
115.52
21
-52.7837
0
LINE
8
BLACK
6
CONTINUOUS
10
136.808
20
-50.6217
11
136.94
21
-50.6714
0
LINE
8
BLACK
6
CONTINUOUS
10
136.94
20
-50.6714
11
137.054
21
-50.7564
0
LINE
8
BLACK
6
CONTINUOUS
10
137.054
20
-50.7564
11
137.139
21
-50.8697
0
LINE
8
BLACK
6
CONTINUOUS
10
137.139
20
-50.8697
11
137.188
21
-51.0024
0
LINE
8
BLACK
6
CONTINUOUS
10
137.188
20
-51.0024
11
137.2
21
-51.1097
0
LINE
8
BLACK
6
CONTINUOUS
10
137.2
20
-51.1097
11
137.2
21
-52.0103
0
LINE
8
BLACK
6
CONTINUOUS
10
137.2
20
-52.0103
11
137.188
21
-52.1176
0
LINE
8
BLACK
6
CONTINUOUS
10
137.188
20
-52.1176
11
137.139
21
-52.2503
0
LINE
8
BLACK
6
CONTINUOUS
10
137.139
20
-52.2503
11
137.054
21
-52.3636
0
LINE
8
BLACK
6
CONTINUOUS
10
137.054
20
-52.3636
11
136.94
21
-52.4486
0
LINE
8
BLACK
6
CONTINUOUS
10
136.94
20
-52.4486
11
136.808
21
-52.4983
0
LINE
8
BLACK
6
CONTINUOUS
10
136.808
20
-52.4983
11
136.7
21
-52.51
0
LINE
8
BLACK
6
CONTINUOUS
10
136.7
20
-52.51
11
135.8
21
-52.51
0
LINE
8
BLACK
6
CONTINUOUS
10
135.8
20
-52.51
11
135.692
21
-52.4983
0
LINE
8
BLACK
6
CONTINUOUS
10
135.692
20
-52.4983
11
135.56
21
-52.4486
0
LINE
8
BLACK
6
CONTINUOUS
10
135.56
20
-52.4486
11
135.446
21
-52.3636
0
LINE
8
BLACK
6
CONTINUOUS
10
135.446
20
-52.3636
11
135.361
21
-52.2503
0
LINE
8
BLACK
6
CONTINUOUS
10
135.361
20
-52.2503
11
135.312
21
-52.1176
0
LINE
8
BLACK
6
CONTINUOUS
10
135.312
20
-52.1176
11
135.3
21
-52.0103
0
LINE
8
BLACK
6
CONTINUOUS
10
135.3
20
-52.0103
11
135.3
21
-51.1097
0
LINE
8
BLACK
6
CONTINUOUS
10
135.3
20
-51.1097
11
135.312
21
-51.0024
0
LINE
8
BLACK
6
CONTINUOUS
10
135.312
20
-51.0024
11
135.361
21
-50.8697
0
LINE
8
BLACK
6
CONTINUOUS
10
135.361
20
-50.8697
11
135.446
21
-50.7564
0
LINE
8
BLACK
6
CONTINUOUS
10
135.446
20
-50.7564
11
135.56
21
-50.6714
0
LINE
8
BLACK
6
CONTINUOUS
10
135.56
20
-50.6714
11
135.692
21
-50.6217
0
LINE
8
BLACK
6
CONTINUOUS
10
135.692
20
-50.6217
11
135.8
21
-50.61
0
LINE
8
BLACK
6
CONTINUOUS
10
135.8
20
-50.61
11
136.7
21
-50.61
0
LINE
8
BLACK
6
CONTINUOUS
10
136.7
20
-50.61
11
136.808
21
-50.6217
0
LINE
8
BLACK
6
CONTINUOUS
10
129.188
20
-50.6217
11
129.32
21
-50.6714
0
LINE
8
BLACK
6
CONTINUOUS
10
129.32
20
-50.6714
11
129.434
21
-50.7564
0
LINE
8
BLACK
6
CONTINUOUS
10
129.434
20
-50.7564
11
129.519
21
-50.8697
0
LINE
8
BLACK
6
CONTINUOUS
10
129.519
20
-50.8697
11
129.568
21
-51.0024
0
LINE
8
BLACK
6
CONTINUOUS
10
129.568
20
-51.0024
11
129.58
21
-51.1097
0
LINE
8
BLACK
6
CONTINUOUS
10
129.58
20
-51.1097
11
129.58
21
-52.0103
0
LINE
8
BLACK
6
CONTINUOUS
10
129.58
20
-52.0103
11
129.568
21
-52.1176
0
LINE
8
BLACK
6
CONTINUOUS
10
129.568
20
-52.1176
11
129.519
21
-52.2503
0
LINE
8
BLACK
6
CONTINUOUS
10
129.519
20
-52.2503
11
129.434
21
-52.3636
0
LINE
8
BLACK
6
CONTINUOUS
10
129.434
20
-52.3636
11
129.32
21
-52.4486
0
LINE
8
BLACK
6
CONTINUOUS
10
129.32
20
-52.4486
11
129.188
21
-52.4983
0
LINE
8
BLACK
6
CONTINUOUS
10
129.188
20
-52.4983
11
129.08
21
-52.51
0
LINE
8
BLACK
6
CONTINUOUS
10
129.08
20
-52.51
11
128.18
21
-52.51
0
LINE
8
BLACK
6
CONTINUOUS
10
128.18
20
-52.51
11
128.072
21
-52.4983
0
LINE
8
BLACK
6
CONTINUOUS
10
128.072
20
-52.4983
11
127.94
21
-52.4486
0
LINE
8
BLACK
6
CONTINUOUS
10
127.94
20
-52.4486
11
127.826
21
-52.3636
0
LINE
8
BLACK
6
CONTINUOUS
10
127.826
20
-52.3636
11
127.741
21
-52.2503
0
LINE
8
BLACK
6
CONTINUOUS
10
127.741
20
-52.2503
11
127.692
21
-52.1176
0
LINE
8
BLACK
6
CONTINUOUS
10
127.692
20
-52.1176
11
127.68
21
-52.0103
0
LINE
8
BLACK
6
CONTINUOUS
10
127.68
20
-52.0103
11
127.68
21
-51.1097
0
LINE
8
BLACK
6
CONTINUOUS
10
127.68
20
-51.1097
11
127.692
21
-51.0024
0
LINE
8
BLACK
6
CONTINUOUS
10
127.692
20
-51.0024
11
127.741
21
-50.8697
0
LINE
8
BLACK
6
CONTINUOUS
10
127.741
20
-50.8697
11
127.826
21
-50.7564
0
LINE
8
BLACK
6
CONTINUOUS
10
127.826
20
-50.7564
11
127.94
21
-50.6714
0
LINE
8
BLACK
6
CONTINUOUS
10
127.94
20
-50.6714
11
128.072
21
-50.6217
0
LINE
8
BLACK
6
CONTINUOUS
10
128.072
20
-50.6217
11
128.18
21
-50.61
0
LINE
8
BLACK
6
CONTINUOUS
10
128.18
20
-50.61
11
129.08
21
-50.61
0
LINE
8
BLACK
6
CONTINUOUS
10
129.08
20
-50.61
11
129.188
21
-50.6217
0
LINE
8
BLACK
6
CONTINUOUS
10
126.648
20
-50.6217
11
126.78
21
-50.6714
0
LINE
8
BLACK
6
CONTINUOUS
10
126.78
20
-50.6714
11
126.894
21
-50.7564
0
LINE
8
BLACK
6
CONTINUOUS
10
126.894
20
-50.7564
11
126.979
21
-50.8697
0
LINE
8
BLACK
6
CONTINUOUS
10
126.979
20
-50.8697
11
127.028
21
-51.0024
0
LINE
8
BLACK
6
CONTINUOUS
10
127.028
20
-51.0024
11
127.04
21
-51.1097
0
LINE
8
BLACK
6
CONTINUOUS
10
127.04
20
-51.1097
11
127.04
21
-52.0103
0
LINE
8
BLACK
6
CONTINUOUS
10
127.04
20
-52.0103
11
127.028
21
-52.1176
0
LINE
8
BLACK
6
CONTINUOUS
10
127.028
20
-52.1176
11
126.979
21
-52.2503
0
LINE
8
BLACK
6
CONTINUOUS
10
126.979
20
-52.2503
11
126.894
21
-52.3636
0
LINE
8
BLACK
6
CONTINUOUS
10
126.894
20
-52.3636
11
126.78
21
-52.4486
0
LINE
8
BLACK
6
CONTINUOUS
10
126.78
20
-52.4486
11
126.648
21
-52.4983
0
LINE
8
BLACK
6
CONTINUOUS
10
126.648
20
-52.4983
11
126.54
21
-52.51
0
LINE
8
BLACK
6
CONTINUOUS
10
126.54
20
-52.51
11
125.64
21
-52.51
0
LINE
8
BLACK
6
CONTINUOUS
10
125.64
20
-52.51
11
125.532
21
-52.4983
0
LINE
8
BLACK
6
CONTINUOUS
10
125.532
20
-52.4983
11
125.4
21
-52.4486
0
LINE
8
BLACK
6
CONTINUOUS
10
125.4
20
-52.4486
11
125.286
21
-52.3636
0
LINE
8
BLACK
6
CONTINUOUS
10
125.286
20
-52.3636
11
125.201
21
-52.2503
0
LINE
8
BLACK
6
CONTINUOUS
10
125.201
20
-52.2503
11
125.152
21
-52.1176
0
LINE
8
BLACK
6
CONTINUOUS
10
125.152
20
-52.1176
11
125.14
21
-52.0103
0
LINE
8
BLACK
6
CONTINUOUS
10
125.14
20
-52.0103
11
125.14
21
-51.1097
0
LINE
8
BLACK
6
CONTINUOUS
10
125.14
20
-51.1097
11
125.152
21
-51.0024
0
LINE
8
BLACK
6
CONTINUOUS
10
125.152
20
-51.0024
11
125.201
21
-50.8697
0
LINE
8
BLACK
6
CONTINUOUS
10
125.201
20
-50.8697
11
125.286
21
-50.7564
0
LINE
8
BLACK
6
CONTINUOUS
10
125.286
20
-50.7564
11
125.4
21
-50.6714
0
LINE
8
BLACK
6
CONTINUOUS
10
125.4
20
-50.6714
11
125.532
21
-50.6217
0
LINE
8
BLACK
6
CONTINUOUS
10
125.532
20
-50.6217
11
125.64
21
-50.61
0
LINE
8
BLACK
6
CONTINUOUS
10
125.64
20
-50.61
11
126.54
21
-50.61
0
LINE
8
BLACK
6
CONTINUOUS
10
126.54
20
-50.61
11
126.648
21
-50.6217
0
LINE
8
BLACK
6
CONTINUOUS
10
108.308
20
-50.6217
11
108.44
21
-50.6714
0
LINE
8
BLACK
6
CONTINUOUS
10
108.44
20
-50.6714
11
108.554
21
-50.7564
0
LINE
8
BLACK
6
CONTINUOUS
10
108.554
20
-50.7564
11
108.639
21
-50.8697
0
LINE
8
BLACK
6
CONTINUOUS
10
108.639
20
-50.8697
11
108.688
21
-51.0024
0
LINE
8
BLACK
6
CONTINUOUS
10
108.688
20
-51.0024
11
108.7
21
-51.1097
0
LINE
8
BLACK
6
CONTINUOUS
10
108.7
20
-51.1097
11
108.7
21
-52.0103
0
LINE
8
BLACK
6
CONTINUOUS
10
108.7
20
-52.0103
11
108.688
21
-52.1176
0
LINE
8
BLACK
6
CONTINUOUS
10
108.688
20
-52.1176
11
108.639
21
-52.2503
0
LINE
8
BLACK
6
CONTINUOUS
10
108.639
20
-52.2503
11
108.554
21
-52.3636
0
LINE
8
BLACK
6
CONTINUOUS
10
108.554
20
-52.3636
11
108.44
21
-52.4486
0
LINE
8
BLACK
6
CONTINUOUS
10
108.44
20
-52.4486
11
108.308
21
-52.4983
0
LINE
8
BLACK
6
CONTINUOUS
10
108.308
20
-52.4983
11
108.2
21
-52.51
0
LINE
8
BLACK
6
CONTINUOUS
10
108.2
20
-52.51
11
107.3
21
-52.51
0
LINE
8
BLACK
6
CONTINUOUS
10
107.3
20
-52.51
11
107.192
21
-52.4983
0
LINE
8
BLACK
6
CONTINUOUS
10
107.192
20
-52.4983
11
107.06
21
-52.4486
0
LINE
8
BLACK
6
CONTINUOUS
10
107.06
20
-52.4486
11
106.946
21
-52.3636
0
LINE
8
BLACK
6
CONTINUOUS
10
106.946
20
-52.3636
11
106.861
21
-52.2503
0
LINE
8
BLACK
6
CONTINUOUS
10
106.861
20
-52.2503
11
106.812
21
-52.1176
0
LINE
8
BLACK
6
CONTINUOUS
10
106.812
20
-52.1176
11
106.8
21
-52.0103
0
LINE
8
BLACK
6
CONTINUOUS
10
106.8
20
-52.0103
11
106.8
21
-51.1097
0
LINE
8
BLACK
6
CONTINUOUS
10
106.8
20
-51.1097
11
106.812
21
-51.0024
0
LINE
8
BLACK
6
CONTINUOUS
10
106.812
20
-51.0024
11
106.861
21
-50.8697
0
LINE
8
BLACK
6
CONTINUOUS
10
106.861
20
-50.8697
11
106.946
21
-50.7564
0
LINE
8
BLACK
6
CONTINUOUS
10
106.946
20
-50.7564
11
107.06
21
-50.6714
0
LINE
8
BLACK
6
CONTINUOUS
10
107.06
20
-50.6714
11
107.192
21
-50.6217
0
LINE
8
BLACK
6
CONTINUOUS
10
107.192
20
-50.6217
11
107.3
21
-50.61
0
LINE
8
BLACK
6
CONTINUOUS
10
107.3
20
-50.61
11
108.2
21
-50.61
0
LINE
8
BLACK
6
CONTINUOUS
10
108.2
20
-50.61
11
108.308
21
-50.6217
0
LINE
8
BLACK
6
CONTINUOUS
10
121.008
20
-50.6217
11
121.14
21
-50.6714
0
LINE
8
BLACK
6
CONTINUOUS
10
121.14
20
-50.6714
11
121.254
21
-50.7564
0
LINE
8
BLACK
6
CONTINUOUS
10
121.254
20
-50.7564
11
121.339
21
-50.8697
0
LINE
8
BLACK
6
CONTINUOUS
10
121.339
20
-50.8697
11
121.388
21
-51.0024
0
LINE
8
BLACK
6
CONTINUOUS
10
121.388
20
-51.0024
11
121.4
21
-51.1097
0
LINE
8
BLACK
6
CONTINUOUS
10
121.4
20
-51.1097
11
121.4
21
-52.0103
0
LINE
8
BLACK
6
CONTINUOUS
10
121.4
20
-52.0103
11
121.388
21
-52.1176
0
LINE
8
BLACK
6
CONTINUOUS
10
121.388
20
-52.1176
11
121.339
21
-52.2503
0
LINE
8
BLACK
6
CONTINUOUS
10
121.339
20
-52.2503
11
121.254
21
-52.3636
0
LINE
8
BLACK
6
CONTINUOUS
10
121.254
20
-52.3636
11
121.14
21
-52.4486
0
LINE
8
BLACK
6
CONTINUOUS
10
121.14
20
-52.4486
11
121.008
21
-52.4983
0
LINE
8
BLACK
6
CONTINUOUS
10
121.008
20
-52.4983
11
120.9
21
-52.51
0
LINE
8
BLACK
6
CONTINUOUS
10
120.9
20
-52.51
11
120
21
-52.51
0
LINE
8
BLACK
6
CONTINUOUS
10
120
20
-52.51
11
119.892
21
-52.4983
0
LINE
8
BLACK
6
CONTINUOUS
10
119.892
20
-52.4983
11
119.76
21
-52.4486
0
LINE
8
BLACK
6
CONTINUOUS
10
119.76
20
-52.4486
11
119.646
21
-52.3636
0
LINE
8
BLACK
6
CONTINUOUS
10
119.646
20
-52.3636
11
119.561
21
-52.2503
0
LINE
8
BLACK
6
CONTINUOUS
10
119.561
20
-52.2503
11
119.512
21
-52.1176
0
LINE
8
BLACK
6
CONTINUOUS
10
119.512
20
-52.1176
11
119.5
21
-52.0103
0
LINE
8
BLACK
6
CONTINUOUS
10
119.5
20
-52.0103
11
119.5
21
-51.1097
0
LINE
8
BLACK
6
CONTINUOUS
10
119.5
20
-51.1097
11
119.512
21
-51.0024
0
LINE
8
BLACK
6
CONTINUOUS
10
119.512
20
-51.0024
11
119.561
21
-50.8697
0
LINE
8
BLACK
6
CONTINUOUS
10
119.561
20
-50.8697
11
119.646
21
-50.7564
0
LINE
8
BLACK
6
CONTINUOUS
10
119.646
20
-50.7564
11
119.76
21
-50.6714
0
LINE
8
BLACK
6
CONTINUOUS
10
119.76
20
-50.6714
11
119.892
21
-50.6217
0
LINE
8
BLACK
6
CONTINUOUS
10
119.892
20
-50.6217
11
120
21
-50.61
0
LINE
8
BLACK
6
CONTINUOUS
10
120
20
-50.61
11
120.9
21
-50.61
0
LINE
8
BLACK
6
CONTINUOUS
10
120.9
20
-50.61
11
121.008
21
-50.6217
0
LINE
8
BLACK
6
CONTINUOUS
10
124.108
20
-50.6217
11
124.24
21
-50.6714
0
LINE
8
BLACK
6
CONTINUOUS
10
124.24
20
-50.6714
11
124.354
21
-50.7564
0
LINE
8
BLACK
6
CONTINUOUS
10
124.354
20
-50.7564
11
124.439
21
-50.8697
0
LINE
8
BLACK
6
CONTINUOUS
10
124.439
20
-50.8697
11
124.488
21
-51.0024
0
LINE
8
BLACK
6
CONTINUOUS
10
124.488
20
-51.0024
11
124.5
21
-51.1097
0
LINE
8
BLACK
6
CONTINUOUS
10
124.5
20
-51.1097
11
124.5
21
-52.0103
0
LINE
8
BLACK
6
CONTINUOUS
10
124.5
20
-52.0103
11
124.488
21
-52.1176
0
LINE
8
BLACK
6
CONTINUOUS
10
124.488
20
-52.1176
11
124.439
21
-52.2503
0
LINE
8
BLACK
6
CONTINUOUS
10
124.439
20
-52.2503
11
124.354
21
-52.3636
0
LINE
8
BLACK
6
CONTINUOUS
10
124.354
20
-52.3636
11
124.24
21
-52.4486
0
LINE
8
BLACK
6
CONTINUOUS
10
124.24
20
-52.4486
11
124.108
21
-52.4983
0
LINE
8
BLACK
6
CONTINUOUS
10
124.108
20
-52.4983
11
124
21
-52.51
0
LINE
8
BLACK
6
CONTINUOUS
10
124
20
-52.51
11
123.1
21
-52.51
0
LINE
8
BLACK
6
CONTINUOUS
10
123.1
20
-52.51
11
122.992
21
-52.4983
0
LINE
8
BLACK
6
CONTINUOUS
10
122.992
20
-52.4983
11
122.86
21
-52.4486
0
LINE
8
BLACK
6
CONTINUOUS
10
122.86
20
-52.4486
11
122.746
21
-52.3636
0
LINE
8
BLACK
6
CONTINUOUS
10
122.746
20
-52.3636
11
122.661
21
-52.2503
0
LINE
8
BLACK
6
CONTINUOUS
10
122.661
20
-52.2503
11
122.612
21
-52.1176
0
LINE
8
BLACK
6
CONTINUOUS
10
122.612
20
-52.1176
11
122.6
21
-52.0103
0
LINE
8
BLACK
6
CONTINUOUS
10
122.6
20
-52.0103
11
122.6
21
-51.1097
0
LINE
8
BLACK
6
CONTINUOUS
10
122.6
20
-51.1097
11
122.612
21
-51.0024
0
LINE
8
BLACK
6
CONTINUOUS
10
122.612
20
-51.0024
11
122.661
21
-50.8697
0
LINE
8
BLACK
6
CONTINUOUS
10
122.661
20
-50.8697
11
122.746
21
-50.7564
0
LINE
8
BLACK
6
CONTINUOUS
10
122.746
20
-50.7564
11
122.86
21
-50.6714
0
LINE
8
BLACK
6
CONTINUOUS
10
122.86
20
-50.6714
11
122.992
21
-50.6217
0
LINE
8
BLACK
6
CONTINUOUS
10
122.992
20
-50.6217
11
123.1
21
-50.61
0
LINE
8
BLACK
6
CONTINUOUS
10
123.1
20
-50.61
11
124
21
-50.61
0
LINE
8
BLACK
6
CONTINUOUS
10
124
20
-50.61
11
124.108
21
-50.6217
  0
ENDSEC
  0
EOF
