ISO-10303-21;
HEADER;
FILE_DESCRIPTION (( 'STEP AP214' ),
    '1' );
FILE_NAME ('SOT-883B.step', '2020-12-07T12:10:43+00:00', 'Stefan Hamminga', '', '', '', '');
FILE_SCHEMA (( 'AUTOMOTIVE_DESIGN' ));
ENDSEC;

DATA;
#1 = CLOSED_SHELL ( 'NONE', ( #180, #67, #58, #103, #64, #160 ) ) ;
#2 = PRODUCT_RELATED_PRODUCT_CATEGORY ( 'part', '', ( #15 ) ) ;
#3 = AXIS2_PLACEMENT_3D ( 'NONE', #119, #56, #171 ) ;
#4 = PRODUCT_CONTEXT ( 'NONE', #187, 'mechanical' ) ;
#5 = ORIENTED_EDGE ( 'NONE', *, *, #106, .T. ) ;
#6 = EDGE_CURVE ( 'NONE', #192, #129, #60, .T. ) ;
#7 = VECTOR ( 'NONE', #163, 1000.000000000000000 ) ;
#8 = LINE ( 'NONE', #186, #83 ) ;
#9 =( LENGTH_UNIT ( ) NAMED_UNIT ( * ) SI_UNIT ( .MILLI., .METRE. ) );
#10 = DIRECTION ( 'NONE',  ( 1.000000000000000000, 0.0000000000000000000, 0.0000000000000000000 ) ) ;
#11 = FACE_OUTER_BOUND ( 'NONE', #79, .T. ) ;
#12 = CARTESIAN_POINT ( 'NONE',  ( -0.6500000000000000222, 0.0000000000000000000, -0.4500000000000000111 ) ) ;
#13 = EDGE_CURVE ( 'NONE', #129, #19, #8, .T. ) ;
#14 = SURFACE_STYLE_FILL_AREA ( #137 ) ;
#15 = PRODUCT ( 'SOT-883B', 'SOT-883B', '', ( #4 ) ) ;
#16 = VECTOR ( 'NONE', #71, 1000.000000000000000 ) ;
#17 = CARTESIAN_POINT ( 'NONE',  ( 0.0000000000000000000, 0.0000000000000000000, 0.0000000000000000000 ) ) ;
#18 = ORIENTED_EDGE ( 'NONE', *, *, #20, .F. ) ;
#19 = VERTEX_POINT ( 'NONE', #172 ) ;
#20 = EDGE_CURVE ( 'NONE', #130, #47, #86, .T. ) ;
#21 = ORIENTED_EDGE ( 'NONE', *, *, #87, .F. ) ;
#22 = VECTOR ( 'NONE', #104, 1000.000000000000000 ) ;
#23 = VERTEX_POINT ( 'NONE', #155 ) ;
#24 = DIRECTION ( 'NONE',  ( 0.0000000000000000000, -0.0000000000000000000, -1.000000000000000000 ) ) ;
#25 = CARTESIAN_POINT ( 'NONE',  ( 0.6500000000000000222, 0.0000000000000000000, 0.4500000000000000111 ) ) ;
#26 = SURFACE_SIDE_STYLE ('',( #14 ) ) ;
#27 = MANIFOLD_SOLID_BREP ( 'Boss-Extrude1', #1 ) ;
#28 = EDGE_CURVE ( 'NONE', #19, #23, #182, .T. ) ;
#29 = PLANE ( 'NONE',  #80 ) ;
#30 = LINE ( 'NONE', #120, #22 ) ;
#31 = VECTOR ( 'NONE', #66, 1000.000000000000000 ) ;
#32 =( GEOMETRIC_REPRESENTATION_CONTEXT ( 3 ) GLOBAL_UNCERTAINTY_ASSIGNED_CONTEXT ( ( #61 ) ) GLOBAL_UNIT_ASSIGNED_CONTEXT ( ( #74, #57, #46 ) ) REPRESENTATION_CONTEXT ( 'NONE', 'WORKASPACE' ) );
#33 =( NAMED_UNIT ( * ) SI_UNIT ( $, .STERADIAN. ) SOLID_ANGLE_UNIT ( ) );
#34 = SURFACE_STYLE_USAGE ( .BOTH. , #174 ) ;
#35 = ORIENTED_EDGE ( 'NONE', *, *, #195, .F. ) ;
#36 = ORIENTED_EDGE ( 'NONE', *, *, #195, .T. ) ;
#37 = VERTEX_POINT ( 'NONE', #69 ) ;
#38 = ORIENTED_EDGE ( 'NONE', *, *, #106, .F. ) ;
#39 = VECTOR ( 'NONE', #97, 1000.000000000000000 ) ;
#40 = CARTESIAN_POINT ( 'NONE',  ( 0.6500000000000000222, 0.6999999999999999556, 0.4500000000000000111 ) ) ;
#41 = PRESENTATION_STYLE_ASSIGNMENT (( #202 ) ) ;
#42 = FACE_OUTER_BOUND ( 'NONE', #161, .T. ) ;
#43 = FACE_OUTER_BOUND ( 'NONE', #175, .T. ) ;
#44 = DIRECTION ( 'NONE',  ( -0.0000000000000000000, -0.0000000000000000000, 1.000000000000000000 ) ) ;
#45 = FILL_AREA_STYLE ('',( #188 ) ) ;
#46 =( NAMED_UNIT ( * ) SI_UNIT ( $, .STERADIAN. ) SOLID_ANGLE_UNIT ( ) );
#47 = VERTEX_POINT ( 'NONE', #101 ) ;
#48 = ORIENTED_EDGE ( 'NONE', *, *, #20, .T. ) ;
#49 = VECTOR ( 'NONE', #44, 1000.000000000000000 ) ;
#50 = CARTESIAN_POINT ( 'NONE',  ( -0.6500000000000000222, 0.0000000000000000000, 0.4500000000000000111 ) ) ;
#51 = LINE ( 'NONE', #50, #115 ) ;
#52 = FACE_OUTER_BOUND ( 'NONE', #127, .T. ) ;
#53 = CARTESIAN_POINT ( 'NONE',  ( -0.6500000000000000222, 0.6999999999999999556, 0.4500000000000000111 ) ) ;
#54 = DIRECTION ( 'NONE',  ( -1.000000000000000000, -0.0000000000000000000, -0.0000000000000000000 ) ) ;
#55 =( NAMED_UNIT ( * ) PLANE_ANGLE_UNIT ( ) SI_UNIT ( $, .RADIAN. ) );
#56 = DIRECTION ( 'NONE',  ( -1.000000000000000000, 0.0000000000000000000, 0.0000000000000000000 ) ) ;
#57 =( NAMED_UNIT ( * ) PLANE_ANGLE_UNIT ( ) SI_UNIT ( $, .RADIAN. ) );
#58 = ADVANCED_FACE ( 'NONE', ( #11 ), #153, .F. ) ;
#59 = APPLICATION_PROTOCOL_DEFINITION ( 'draft international standard', 'automotive_design', 1998, #194 ) ;
#60 = LINE ( 'NONE', #190, #7 ) ;
#61 = UNCERTAINTY_MEASURE_WITH_UNIT (LENGTH_MEASURE( 1.000000000000000082E-05 ), #74, 'distance_accuracy_value', 'NONE');
#62 = ORIENTED_EDGE ( 'NONE', *, *, #142, .F. ) ;
#63 = ORIENTED_EDGE ( 'NONE', *, *, #123, .T. ) ;
#64 = ADVANCED_FACE ( 'NONE', ( #52 ), #197, .F. ) ;
#65 = LINE ( 'NONE', #25, #189 ) ;
#66 = DIRECTION ( 'NONE',  ( 0.0000000000000000000, 0.0000000000000000000, -1.000000000000000000 ) ) ;
#67 = ADVANCED_FACE ( 'NONE', ( #42 ), #29, .F. ) ;
#68 = DIRECTION ( 'NONE',  ( 0.0000000000000000000, 0.0000000000000000000, -1.000000000000000000 ) ) ;
#69 = CARTESIAN_POINT ( 'NONE',  ( -0.6500000000000000222, 0.6999999999999999556, 0.4500000000000000111 ) ) ;
#70 = MECHANICAL_DESIGN_GEOMETRIC_PRESENTATION_REPRESENTATION (  '', ( #72 ), #32 ) ;
#71 = DIRECTION ( 'NONE',  ( -0.0000000000000000000, -1.000000000000000000, -0.0000000000000000000 ) ) ;
#72 = STYLED_ITEM ( 'NONE', ( #92 ), #139 ) ;
#73 = APPLICATION_PROTOCOL_DEFINITION ( 'draft international standard', 'automotive_design', 1998, #187 ) ;
#74 =( LENGTH_UNIT ( ) NAMED_UNIT ( * ) SI_UNIT ( .MILLI., .METRE. ) );
#75 = DIRECTION ( 'NONE',  ( 0.0000000000000000000, 0.0000000000000000000, 1.000000000000000000 ) ) ;
#76 = ORIENTED_EDGE ( 'NONE', *, *, #28, .T. ) ;
#77 = PRESENTATION_LAYER_ASSIGNMENT (  '', '', ( #72 ) ) ;
#78 = ORIENTED_EDGE ( 'NONE', *, *, #123, .F. ) ;
#79 = EDGE_LOOP ( 'NONE', ( #76, #158, #145, #193 ) ) ;
#80 = AXIS2_PLACEMENT_3D ( 'NONE', #169, #154, #85 ) ;
#81 = AXIS2_PLACEMENT_3D ( 'NONE', #17, #75, #144 ) ;
#82 = LINE ( 'NONE', #100, #31 ) ;
#83 = VECTOR ( 'NONE', #122, 1000.000000000000000 ) ;
#84 = CARTESIAN_POINT ( 'NONE',  ( -0.6500000000000000222, 0.6999999999999999556, 0.4500000000000000111 ) ) ;
#85 = DIRECTION ( 'NONE',  ( 1.000000000000000000, 0.0000000000000000000, -0.0000000000000000000 ) ) ;
#86 = LINE ( 'NONE', #105, #16 ) ;
#87 = EDGE_CURVE ( 'NONE', #177, #19, #170, .T. ) ;
#88 = VECTOR ( 'NONE', #150, 1000.000000000000000 ) ;
#89 = DIRECTION ( 'NONE',  ( -0.0000000000000000000, -0.0000000000000000000, 1.000000000000000000 ) ) ;
#90 = LINE ( 'NONE', #165, #39 ) ;
#91 = STYLED_ITEM ( 'NONE', ( #41 ), #27 ) ;
#92 = PRESENTATION_STYLE_ASSIGNMENT (( #34 ) ) ;
#93 = ORIENTED_EDGE ( 'NONE', *, *, #87, .T. ) ;
#94 = ORIENTED_EDGE ( 'NONE', *, *, #13, .F. ) ;
#95 = ORIENTED_EDGE ( 'NONE', *, *, #6, .F. ) ;
#96 = ORIENTED_EDGE ( 'NONE', *, *, #6, .T. ) ;
#97 = DIRECTION ( 'NONE',  ( -0.0000000000000000000, -1.000000000000000000, -0.0000000000000000000 ) ) ;
#98 =( GEOMETRIC_REPRESENTATION_CONTEXT ( 3 ) GLOBAL_UNCERTAINTY_ASSIGNED_CONTEXT ( ( #110 ) ) GLOBAL_UNIT_ASSIGNED_CONTEXT ( ( #200, #55, #133 ) ) REPRESENTATION_CONTEXT ( 'NONE', 'WORKASPACE' ) );
#99 = EDGE_CURVE ( 'NONE', #37, #23, #30, .T. ) ;
#100 = CARTESIAN_POINT ( 'NONE',  ( 0.6500000000000000222, 0.6999999999999999556, 0.4500000000000000111 ) ) ;
#101 = CARTESIAN_POINT ( 'NONE',  ( 0.6500000000000000222, 0.0000000000000000000, 0.4500000000000000111 ) ) ;
#102 = DIRECTION ( 'NONE',  ( 0.0000000000000000000, -0.0000000000000000000, -1.000000000000000000 ) ) ;
#103 = ADVANCED_FACE ( 'NONE', ( #43 ), #198, .F. ) ;
#104 = DIRECTION ( 'NONE',  ( -0.0000000000000000000, -1.000000000000000000, -0.0000000000000000000 ) ) ;
#105 = CARTESIAN_POINT ( 'NONE',  ( 0.6500000000000000222, 0.6999999999999999556, 0.4500000000000000111 ) ) ;
#106 = EDGE_CURVE ( 'NONE', #23, #47, #51, .T. ) ;
#107 = AXIS2_PLACEMENT_3D ( 'NONE', #183, #118, #102 ) ;
#108 = SURFACE_STYLE_FILL_AREA ( #45 ) ;
#109 = MECHANICAL_DESIGN_GEOMETRIC_PRESENTATION_REPRESENTATION (  '', ( #91 ), #98 ) ;
#110 = UNCERTAINTY_MEASURE_WITH_UNIT (LENGTH_MEASURE( 1.000000000000000082E-05 ), #200, 'distance_accuracy_value', 'NONE');
#111 = EDGE_LOOP ( 'NONE', ( #176, #35, #148, #48 ) ) ;
#112 = COLOUR_RGB ( '',0.0000000000000000000, 0.0000000000000000000, 0.0000000000000000000 ) ;
#113 = ORIENTED_EDGE ( 'NONE', *, *, #178, .T. ) ;
#114 = PLANE ( 'NONE',  #143 ) ;
#115 = VECTOR ( 'NONE', #10, 1000.000000000000000 ) ;
#116 = CARTESIAN_POINT ( 'NONE',  ( -0.6500000000000000222, 0.6999999999999999556, -0.4500000000000000111 ) ) ;
#117 = CARTESIAN_POINT ( 'NONE',  ( -0.6500000000000000222, 0.0000000000000000000, 0.4500000000000000111 ) ) ;
#118 = DIRECTION ( 'NONE',  ( 0.0000000000000000000, -1.000000000000000000, 0.0000000000000000000 ) ) ;
#119 = CARTESIAN_POINT ( 'NONE',  ( 0.6500000000000000222, 0.6999999999999999556, 0.4500000000000000111 ) ) ;
#120 = CARTESIAN_POINT ( 'NONE',  ( -0.6500000000000000222, 0.6999999999999999556, 0.4500000000000000111 ) ) ;
#121 = CARTESIAN_POINT ( 'NONE',  ( 0.6500000000000000222, 0.0000000000000000000, -0.4500000000000000111 ) ) ;
#122 = DIRECTION ( 'NONE',  ( -0.0000000000000000000, -1.000000000000000000, -0.0000000000000000000 ) ) ;
#123 = EDGE_CURVE ( 'NONE', #37, #130, #196, .T. ) ;
#124 = COLOUR_RGB ( '',0.0000000000000000000, 0.0000000000000000000, 0.0000000000000000000 ) ;
#125 = CARTESIAN_POINT ( 'NONE',  ( 0.6500000000000000222, 0.6999999999999999556, -0.4500000000000000111 ) ) ;
#126 = SHAPE_DEFINITION_REPRESENTATION ( #156, #139 ) ;
#127 = EDGE_LOOP ( 'NONE', ( #162, #96, #113, #63 ) ) ;
#128 = PRESENTATION_LAYER_ASSIGNMENT (  '', '', ( #91 ) ) ;
#129 = VERTEX_POINT ( 'NONE', #116 ) ;
#130 = VERTEX_POINT ( 'NONE', #40 ) ;
#131 = FACE_OUTER_BOUND ( 'NONE', #164, .T. ) ;
#132 = CARTESIAN_POINT ( 'NONE',  ( -0.6500000000000000222, 0.6999999999999999556, 0.4500000000000000111 ) ) ;
#133 =( NAMED_UNIT ( * ) SI_UNIT ( $, .STERADIAN. ) SOLID_ANGLE_UNIT ( ) );
#134 = DIRECTION ( 'NONE',  ( 1.000000000000000000, -0.0000000000000000000, 0.0000000000000000000 ) ) ;
#135 = EDGE_CURVE ( 'NONE', #130, #192, #82, .T. ) ;
#136 = FACE_OUTER_BOUND ( 'NONE', #111, .T. ) ;
#137 = FILL_AREA_STYLE ('',( #184 ) ) ;
#138 = AXIS2_PLACEMENT_3D ( 'NONE', #84, #134, #68 ) ;
#139 = ADVANCED_BREP_SHAPE_REPRESENTATION ( 'SOT-883B', ( #27, #81 ), #157 ) ;
#140 =( NAMED_UNIT ( * ) PLANE_ANGLE_UNIT ( ) SI_UNIT ( $, .RADIAN. ) );
#141 = PRODUCT_DEFINITION_FORMATION_WITH_SPECIFIED_SOURCE ( 'ANY', '', #15, .NOT_KNOWN. ) ;
#142 = EDGE_CURVE ( 'NONE', #47, #177, #65, .T. ) ;
#143 = AXIS2_PLACEMENT_3D ( 'NONE', #179, #167, #24 ) ;
#144 = DIRECTION ( 'NONE',  ( 1.000000000000000000, 0.0000000000000000000, 0.0000000000000000000 ) ) ;
#145 = ORIENTED_EDGE ( 'NONE', *, *, #178, .F. ) ;
#146 = PRODUCT_DEFINITION ( 'UNKNOWN', '', #141, #147 ) ;
#147 = PRODUCT_DEFINITION_CONTEXT ( 'detailed design', #194, 'design' ) ;
#148 = ORIENTED_EDGE ( 'NONE', *, *, #135, .F. ) ;
#149 = ORIENTED_EDGE ( 'NONE', *, *, #28, .F. ) ;
#150 = DIRECTION ( 'NONE',  ( 1.000000000000000000, 0.0000000000000000000, 0.0000000000000000000 ) ) ;
#151 = DIRECTION ( 'NONE',  ( -1.000000000000000000, 0.0000000000000000000, -0.0000000000000000000 ) ) ;
#152 = DIRECTION ( 'NONE',  ( 0.0000000000000000000, 0.0000000000000000000, -1.000000000000000000 ) ) ;
#153 = PLANE ( 'NONE',  #138 ) ;
#154 = DIRECTION ( 'NONE',  ( 0.0000000000000000000, 0.0000000000000000000, 1.000000000000000000 ) ) ;
#155 = CARTESIAN_POINT ( 'NONE',  ( -0.6500000000000000222, 0.0000000000000000000, 0.4500000000000000111 ) ) ;
#156 = PRODUCT_DEFINITION_SHAPE ( 'NONE', 'NONE',  #146 ) ;
#157 =( GEOMETRIC_REPRESENTATION_CONTEXT ( 3 ) GLOBAL_UNCERTAINTY_ASSIGNED_CONTEXT ( ( #191 ) ) GLOBAL_UNIT_ASSIGNED_CONTEXT ( ( #9, #140, #33 ) ) REPRESENTATION_CONTEXT ( 'NONE', 'WORKASPACE' ) );
#158 = ORIENTED_EDGE ( 'NONE', *, *, #99, .F. ) ;
#159 = ORIENTED_EDGE ( 'NONE', *, *, #99, .T. ) ;
#160 = ADVANCED_FACE ( 'NONE', ( #131 ), #114, .T. ) ;
#161 = EDGE_LOOP ( 'NONE', ( #93, #94, #95, #36 ) ) ;
#162 = ORIENTED_EDGE ( 'NONE', *, *, #135, .T. ) ;
#163 = DIRECTION ( 'NONE',  ( -1.000000000000000000, -0.0000000000000000000, -0.0000000000000000000 ) ) ;
#164 = EDGE_LOOP ( 'NONE', ( #62, #38, #149, #21 ) ) ;
#165 = CARTESIAN_POINT ( 'NONE',  ( 0.6500000000000000222, 0.6999999999999999556, -0.4500000000000000111 ) ) ;
#166 = VECTOR ( 'NONE', #89, 1000.000000000000000 ) ;
#167 = DIRECTION ( 'NONE',  ( 0.0000000000000000000, -1.000000000000000000, 0.0000000000000000000 ) ) ;
#168 = CARTESIAN_POINT ( 'NONE',  ( -0.6500000000000000222, 0.6999999999999999556, 0.4500000000000000111 ) ) ;
#169 = CARTESIAN_POINT ( 'NONE',  ( -0.6500000000000000222, 0.6999999999999999556, -0.4500000000000000111 ) ) ;
#170 = LINE ( 'NONE', #12, #199 ) ;
#171 = DIRECTION ( 'NONE',  ( 0.0000000000000000000, 0.0000000000000000000, 1.000000000000000000 ) ) ;
#172 = CARTESIAN_POINT ( 'NONE',  ( -0.6500000000000000222, 0.0000000000000000000, -0.4500000000000000111 ) ) ;
#173 = AXIS2_PLACEMENT_3D ( 'NONE', #168, #152, #151 ) ;
#174 = SURFACE_SIDE_STYLE ('',( #108 ) ) ;
#175 = EDGE_LOOP ( 'NONE', ( #5, #18, #78, #159 ) ) ;
#176 = ORIENTED_EDGE ( 'NONE', *, *, #142, .T. ) ;
#177 = VERTEX_POINT ( 'NONE', #121 ) ;
#178 = EDGE_CURVE ( 'NONE', #129, #37, #185, .T. ) ;
#179 = CARTESIAN_POINT ( 'NONE',  ( 0.0000000000000000000, 0.0000000000000000000, 0.0000000000000000000 ) ) ;
#180 = ADVANCED_FACE ( 'NONE', ( #136 ), #201, .F. ) ;
#181 = DIRECTION ( 'NONE',  ( 0.0000000000000000000, 0.0000000000000000000, -1.000000000000000000 ) ) ;
#182 = LINE ( 'NONE', #117, #166 ) ;
#183 = CARTESIAN_POINT ( 'NONE',  ( 0.0000000000000000000, 0.6999999999999999556, 0.0000000000000000000 ) ) ;
#184 = FILL_AREA_STYLE_COLOUR ( '', #124 ) ;
#185 = LINE ( 'NONE', #53, #49 ) ;
#186 = CARTESIAN_POINT ( 'NONE',  ( -0.6500000000000000222, 0.6999999999999999556, -0.4500000000000000111 ) ) ;
#187 = APPLICATION_CONTEXT ( 'automotive_design' ) ;
#188 = FILL_AREA_STYLE_COLOUR ( '', #112 ) ;
#189 = VECTOR ( 'NONE', #181, 1000.000000000000000 ) ;
#190 = CARTESIAN_POINT ( 'NONE',  ( -0.6500000000000000222, 0.6999999999999999556, -0.4500000000000000111 ) ) ;
#191 = UNCERTAINTY_MEASURE_WITH_UNIT (LENGTH_MEASURE( 1.000000000000000082E-05 ), #9, 'distance_accuracy_value', 'NONE');
#192 = VERTEX_POINT ( 'NONE', #125 ) ;
#193 = ORIENTED_EDGE ( 'NONE', *, *, #13, .T. ) ;
#194 = APPLICATION_CONTEXT ( 'automotive_design' ) ;
#195 = EDGE_CURVE ( 'NONE', #192, #177, #90, .T. ) ;
#196 = LINE ( 'NONE', #132, #88 ) ;
#197 = PLANE ( 'NONE',  #107 ) ;
#198 = PLANE ( 'NONE',  #173 ) ;
#199 = VECTOR ( 'NONE', #54, 1000.000000000000000 ) ;
#200 =( LENGTH_UNIT ( ) NAMED_UNIT ( * ) SI_UNIT ( .MILLI., .METRE. ) );
#201 = PLANE ( 'NONE',  #3 ) ;
#202 = SURFACE_STYLE_USAGE ( .BOTH. , #26 ) ;
ENDSEC;
END-ISO-10303-21;
