ISO-10303-21;
HEADER;
FILE_DESCRIPTION (( 'STEP AP214' ),
    '1' );
FILE_NAME ('Copper_disk_12x1.step', '2020-12-07T12:10:43+00:00', 'Stefan Hamminga', '', '', '', '');
FILE_SCHEMA (( 'AUTOMOTIVE_DESIGN' ));
ENDSEC;

DATA;
#1 = LINE ( 'NONE', #43, #135 ) ;
#2 = SHAPE_DEFINITION_REPRESENTATION ( #108, #125 ) ;
#3 = AXIS2_PLACEMENT_3D ( 'NONE', #133, #35, #81 ) ;
#4 = CARTESIAN_POINT ( 'NONE',  ( 7.347880794884120722E-16, 0.0000000000000000000, 6.000000000000000888 ) ) ;
#5 = APPLICATION_PROTOCOL_DEFINITION ( 'draft international standard', 'automotive_design', 1998, #58 ) ;
#6 = FACE_OUTER_BOUND ( 'NONE', #103, .T. ) ;
#7 = VERTEX_POINT ( 'NONE', #49 ) ;
#8 = PRODUCT_DEFINITION ( 'UNKNOWN', '', #48, #132 ) ;
#9 = DIRECTION ( 'NONE',  ( 0.0000000000000000000, 0.0000000000000000000, -1.000000000000000000 ) ) ;
#10 = AXIS2_PLACEMENT_3D ( 'NONE', #16, #59, #98 ) ;
#11 = SURFACE_STYLE_FILL_AREA ( #53 ) ;
#12 = CARTESIAN_POINT ( 'NONE',  ( 0.0000000000000000000, 1.000000000000000000, 0.0000000000000000000 ) ) ;
#13 = DIRECTION ( 'NONE',  ( 1.000000000000000000, 0.0000000000000000000, 0.0000000000000000000 ) ) ;
#14 = ADVANCED_FACE ( 'NONE', ( #6 ), #91, .T. ) ;
#15 = PRESENTATION_LAYER_ASSIGNMENT (  '', '', ( #134 ) ) ;
#16 = CARTESIAN_POINT ( 'NONE',  ( 0.0000000000000000000, 1.000000000000000000, 0.0000000000000000000 ) ) ;
#17 = ORIENTED_EDGE ( 'NONE', *, *, #66, .T. ) ;
#18 = VERTEX_POINT ( 'NONE', #117 ) ;
#19 = ORIENTED_EDGE ( 'NONE', *, *, #72, .T. ) ;
#20 = PRODUCT_RELATED_PRODUCT_CATEGORY ( 'part', '', ( #62 ) ) ;
#21 = DIRECTION ( 'NONE',  ( 0.0000000000000000000, -0.0000000000000000000, 1.000000000000000000 ) ) ;
#22 = VECTOR ( 'NONE', #76, 1000.000000000000000 ) ;
#23 = UNCERTAINTY_MEASURE_WITH_UNIT (LENGTH_MEASURE( 1.000000000000000082E-05 ), #137, 'distance_accuracy_value', 'NONE');
#24 = DIRECTION ( 'NONE',  ( 0.0000000000000000000, 0.0000000000000000000, 1.000000000000000000 ) ) ;
#25 = DIRECTION ( 'NONE',  ( 0.0000000000000000000, 1.000000000000000000, 0.0000000000000000000 ) ) ;
#26 = AXIS2_PLACEMENT_3D ( 'NONE', #69, #111, #13 ) ;
#27 = AXIS2_PLACEMENT_3D ( 'NONE', #46, #38, #90 ) ;
#28 = DIRECTION ( 'NONE',  ( 0.0000000000000000000, 0.0000000000000000000, 1.000000000000000000 ) ) ;
#29 = SURFACE_STYLE_FILL_AREA ( #128 ) ;
#30 = CARTESIAN_POINT ( 'NONE',  ( 0.0000000000000000000, 1.000000000000000000, -6.000000000000000888 ) ) ;
#31 = EDGE_LOOP ( 'NONE', ( #39, #114, #19, #129 ) ) ;
#32 = PLANE ( 'NONE',  #119 ) ;
#33 = COLOUR_RGB ( '',0.5372549019607842924, 0.3490196078431372362, 0.3372549019607843368 ) ;
#34 = ADVANCED_FACE ( 'NONE', ( #101 ), #32, .F. ) ;
#35 = DIRECTION ( 'NONE',  ( 0.0000000000000000000, 1.000000000000000000, 0.0000000000000000000 ) ) ;
#36 = AXIS2_PLACEMENT_3D ( 'NONE', #131, #123, #24 ) ;
#37 = MECHANICAL_DESIGN_GEOMETRIC_PRESENTATION_REPRESENTATION (  '', ( #55 ), #102 ) ;
#38 = DIRECTION ( 'NONE',  ( 0.0000000000000000000, 1.000000000000000000, 0.0000000000000000000 ) ) ;
#39 = ORIENTED_EDGE ( 'NONE', *, *, #100, .F. ) ;
#40 = ORIENTED_EDGE ( 'NONE', *, *, #89, .F. ) ;
#41 = CIRCLE ( 'NONE', #27, 6.000000000000000888 ) ;
#42 = SURFACE_SIDE_STYLE ('',( #11 ) ) ;
#43 = CARTESIAN_POINT ( 'NONE',  ( 7.347880794884120722E-16, 1.000000000000000000, 6.000000000000000888 ) ) ;
#44 =( GEOMETRIC_REPRESENTATION_CONTEXT ( 3 ) GLOBAL_UNCERTAINTY_ASSIGNED_CONTEXT ( ( #23 ) ) GLOBAL_UNIT_ASSIGNED_CONTEXT ( ( #137, #126, #113 ) ) REPRESENTATION_CONTEXT ( 'NONE', 'WORKASPACE' ) );
#45 = SURFACE_STYLE_USAGE ( .BOTH. , #42 ) ;
#46 = CARTESIAN_POINT ( 'NONE',  ( 0.0000000000000000000, 0.0000000000000000000, 0.0000000000000000000 ) ) ;
#47 = VERTEX_POINT ( 'NONE', #104 ) ;
#48 = PRODUCT_DEFINITION_FORMATION_WITH_SPECIFIED_SOURCE ( 'ANY', '', #62, .NOT_KNOWN. ) ;
#49 = CARTESIAN_POINT ( 'NONE',  ( 0.0000000000000000000, 0.0000000000000000000, -6.000000000000000888 ) ) ;
#50 = CARTESIAN_POINT ( 'NONE',  ( 0.0000000000000000000, 0.0000000000000000000, 0.0000000000000000000 ) ) ;
#51 = CIRCLE ( 'NONE', #3, 6.000000000000000888 ) ;
#52 = CIRCLE ( 'NONE', #36, 6.000000000000000888 ) ;
#53 = FILL_AREA_STYLE ('',( #93 ) ) ;
#54 = DIRECTION ( 'NONE',  ( 0.0000000000000000000, 1.000000000000000000, 0.0000000000000000000 ) ) ;
#55 = STYLED_ITEM ( 'NONE', ( #122 ), #125 ) ;
#56 = PRODUCT_CONTEXT ( 'NONE', #58, 'mechanical' ) ;
#57 = EDGE_CURVE ( 'NONE', #7, #139, #41, .T. ) ;
#58 = APPLICATION_CONTEXT ( 'automotive_design' ) ;
#59 = DIRECTION ( 'NONE',  ( -0.0000000000000000000, -1.000000000000000000, -0.0000000000000000000 ) ) ;
#60 = ORIENTED_EDGE ( 'NONE', *, *, #57, .F. ) ;
#61 = ORIENTED_EDGE ( 'NONE', *, *, #100, .T. ) ;
#62 = PRODUCT ( 'Copper_disk_12x1', 'Copper_disk_12x1', '', ( #56 ) ) ;
#63 = AXIS2_PLACEMENT_3D ( 'NONE', #64, #78, #9 ) ;
#64 = CARTESIAN_POINT ( 'NONE',  ( 0.0000000000000000000, 1.000000000000000000, 0.0000000000000000000 ) ) ;
#65 = CIRCLE ( 'NONE', #127, 6.000000000000000888 ) ;
#66 = EDGE_CURVE ( 'NONE', #18, #7, #138, .T. ) ;
#67 = FACE_OUTER_BOUND ( 'NONE', #130, .T. ) ;
#68 = APPLICATION_CONTEXT ( 'automotive_design' ) ;
#69 = CARTESIAN_POINT ( 'NONE',  ( 0.0000000000000000000, 0.0000000000000000000, 0.0000000000000000000 ) ) ;
#70 = AXIS2_PLACEMENT_3D ( 'NONE', #12, #54, #96 ) ;
#71 = MANIFOLD_SOLID_BREP ( 'Boss-Extrude1', #105 ) ;
#72 = EDGE_CURVE ( 'NONE', #139, #7, #52, .T. ) ;
#73 = FACE_OUTER_BOUND ( 'NONE', #31, .T. ) ;
#74 = COLOUR_RGB ( '',0.5372549019607842924, 0.3490196078431372362, 0.3372549019607843368 ) ;
#75 = SURFACE_SIDE_STYLE ('',( #29 ) ) ;
#76 = DIRECTION ( 'NONE',  ( -0.0000000000000000000, -1.000000000000000000, -0.0000000000000000000 ) ) ;
#77 = ORIENTED_EDGE ( 'NONE', *, *, #89, .T. ) ;
#78 = DIRECTION ( 'NONE',  ( -0.0000000000000000000, -1.000000000000000000, -0.0000000000000000000 ) ) ;
#79 = UNCERTAINTY_MEASURE_WITH_UNIT (LENGTH_MEASURE( 1.000000000000000082E-05 ), #109, 'distance_accuracy_value', 'NONE');
#80 = SURFACE_STYLE_USAGE ( .BOTH. , #75 ) ;
#81 = DIRECTION ( 'NONE',  ( 0.0000000000000000000, 0.0000000000000000000, 1.000000000000000000 ) ) ;
#82 = ADVANCED_FACE ( 'NONE', ( #67 ), #110, .T. ) ;
#83 = FILL_AREA_STYLE_COLOUR ( '', #33 ) ;
#84 = EDGE_LOOP ( 'NONE', ( #60, #116 ) ) ;
#85 = EDGE_CURVE ( 'NONE', #47, #139, #1, .T. ) ;
#86 =( NAMED_UNIT ( * ) SI_UNIT ( $, .STERADIAN. ) SOLID_ANGLE_UNIT ( ) );
#87 =( NAMED_UNIT ( * ) SI_UNIT ( $, .STERADIAN. ) SOLID_ANGLE_UNIT ( ) );
#88 = DIRECTION ( 'NONE',  ( -0.0000000000000000000, -1.000000000000000000, -0.0000000000000000000 ) ) ;
#89 = EDGE_CURVE ( 'NONE', #18, #47, #51, .T. ) ;
#90 = DIRECTION ( 'NONE',  ( 0.0000000000000000000, 0.0000000000000000000, 1.000000000000000000 ) ) ;
#91 = CYLINDRICAL_SURFACE ( 'NONE', #63, 6.000000000000000888 ) ;
#92 = MECHANICAL_DESIGN_GEOMETRIC_PRESENTATION_REPRESENTATION (  '', ( #134 ), #136 ) ;
#93 = FILL_AREA_STYLE_COLOUR ( '', #74 ) ;
#94 =( NAMED_UNIT ( * ) PLANE_ANGLE_UNIT ( ) SI_UNIT ( $, .RADIAN. ) );
#95 =( NAMED_UNIT ( * ) PLANE_ANGLE_UNIT ( ) SI_UNIT ( $, .RADIAN. ) );
#96 = DIRECTION ( 'NONE',  ( 0.0000000000000000000, -0.0000000000000000000, 1.000000000000000000 ) ) ;
#97 = APPLICATION_PROTOCOL_DEFINITION ( 'draft international standard', 'automotive_design', 1998, #68 ) ;
#98 = DIRECTION ( 'NONE',  ( 0.0000000000000000000, 0.0000000000000000000, -1.000000000000000000 ) ) ;
#99 = ORIENTED_EDGE ( 'NONE', *, *, #57, .T. ) ;
#100 = EDGE_CURVE ( 'NONE', #47, #18, #65, .T. ) ;
#101 = FACE_OUTER_BOUND ( 'NONE', #84, .T. ) ;
#102 =( GEOMETRIC_REPRESENTATION_CONTEXT ( 3 ) GLOBAL_UNCERTAINTY_ASSIGNED_CONTEXT ( ( #79 ) ) GLOBAL_UNIT_ASSIGNED_CONTEXT ( ( #109, #95, #87 ) ) REPRESENTATION_CONTEXT ( 'NONE', 'WORKASPACE' ) );
#103 = EDGE_LOOP ( 'NONE', ( #115, #40, #17, #99 ) ) ;
#104 = CARTESIAN_POINT ( 'NONE',  ( 7.347880794884120722E-16, 1.000000000000000000, 6.000000000000000888 ) ) ;
#105 = CLOSED_SHELL ( 'NONE', ( #121, #14, #82, #34 ) ) ;
#106 =( LENGTH_UNIT ( ) NAMED_UNIT ( * ) SI_UNIT ( .MILLI., .METRE. ) );
#107 = UNCERTAINTY_MEASURE_WITH_UNIT (LENGTH_MEASURE( 1.000000000000000082E-05 ), #106, 'distance_accuracy_value', 'NONE');
#108 = PRODUCT_DEFINITION_SHAPE ( 'NONE', 'NONE',  #8 ) ;
#109 =( LENGTH_UNIT ( ) NAMED_UNIT ( * ) SI_UNIT ( .MILLI., .METRE. ) );
#110 = PLANE ( 'NONE',  #70 ) ;
#111 = DIRECTION ( 'NONE',  ( 0.0000000000000000000, 0.0000000000000000000, 1.000000000000000000 ) ) ;
#112 = CYLINDRICAL_SURFACE ( 'NONE', #10, 6.000000000000000888 ) ;
#113 =( NAMED_UNIT ( * ) SI_UNIT ( $, .STERADIAN. ) SOLID_ANGLE_UNIT ( ) );
#114 = ORIENTED_EDGE ( 'NONE', *, *, #85, .T. ) ;
#115 = ORIENTED_EDGE ( 'NONE', *, *, #85, .F. ) ;
#116 = ORIENTED_EDGE ( 'NONE', *, *, #72, .F. ) ;
#117 = CARTESIAN_POINT ( 'NONE',  ( 0.0000000000000000000, 1.000000000000000000, -6.000000000000000888 ) ) ;
#118 = PRESENTATION_LAYER_ASSIGNMENT (  '', '', ( #55 ) ) ;
#119 = AXIS2_PLACEMENT_3D ( 'NONE', #50, #140, #21 ) ;
#120 = PRESENTATION_STYLE_ASSIGNMENT (( #45 ) ) ;
#121 = ADVANCED_FACE ( 'NONE', ( #73 ), #112, .T. ) ;
#122 = PRESENTATION_STYLE_ASSIGNMENT (( #80 ) ) ;
#123 = DIRECTION ( 'NONE',  ( 0.0000000000000000000, 1.000000000000000000, 0.0000000000000000000 ) ) ;
#124 = CARTESIAN_POINT ( 'NONE',  ( 0.0000000000000000000, 1.000000000000000000, 0.0000000000000000000 ) ) ;
#125 = ADVANCED_BREP_SHAPE_REPRESENTATION ( 'Copper_disk_12x1', ( #71, #26 ), #44 ) ;
#126 =( NAMED_UNIT ( * ) PLANE_ANGLE_UNIT ( ) SI_UNIT ( $, .RADIAN. ) );
#127 = AXIS2_PLACEMENT_3D ( 'NONE', #124, #25, #28 ) ;
#128 = FILL_AREA_STYLE ('',( #83 ) ) ;
#129 = ORIENTED_EDGE ( 'NONE', *, *, #66, .F. ) ;
#130 = EDGE_LOOP ( 'NONE', ( #77, #61 ) ) ;
#131 = CARTESIAN_POINT ( 'NONE',  ( 0.0000000000000000000, 0.0000000000000000000, 0.0000000000000000000 ) ) ;
#132 = PRODUCT_DEFINITION_CONTEXT ( 'detailed design', #68, 'design' ) ;
#133 = CARTESIAN_POINT ( 'NONE',  ( 0.0000000000000000000, 1.000000000000000000, 0.0000000000000000000 ) ) ;
#134 = STYLED_ITEM ( 'NONE', ( #120 ), #71 ) ;
#135 = VECTOR ( 'NONE', #88, 1000.000000000000000 ) ;
#136 =( GEOMETRIC_REPRESENTATION_CONTEXT ( 3 ) GLOBAL_UNCERTAINTY_ASSIGNED_CONTEXT ( ( #107 ) ) GLOBAL_UNIT_ASSIGNED_CONTEXT ( ( #106, #94, #86 ) ) REPRESENTATION_CONTEXT ( 'NONE', 'WORKASPACE' ) );
#137 =( LENGTH_UNIT ( ) NAMED_UNIT ( * ) SI_UNIT ( .MILLI., .METRE. ) );
#138 = LINE ( 'NONE', #30, #22 ) ;
#139 = VERTEX_POINT ( 'NONE', #4 ) ;
#140 = DIRECTION ( 'NONE',  ( 0.0000000000000000000, 1.000000000000000000, 0.0000000000000000000 ) ) ;
ENDSEC;
END-ISO-10303-21;
