ISO-10303-21;
HEADER;
FILE_DESCRIPTION (( 'STEP AP214' ),
    '1' );
FILE_NAME ('ST_powerSTEP01.step', '2020-12-07T12:10:43+00:00', 'Stefan Hamminga', '', '', '', '');
FILE_SCHEMA (( 'AUTOMOTIVE_DESIGN' ));
ENDSEC;

DATA;
#1 = LINE ( 'NONE', #144, #205 ) ;
#2 = MECHANICAL_DESIGN_GEOMETRIC_PRESENTATION_REPRESENTATION (  '', ( #226 ), #20 ) ;
#3 = CARTESIAN_POINT ( 'NONE',  ( 0.0000000000000000000, 0.9200000000000000400, 0.0000000000000000000 ) ) ;
#4 = APPLICATION_PROTOCOL_DEFINITION ( 'draft international standard', 'automotive_design', 1998, #113 ) ;
#5 = CARTESIAN_POINT ( 'NONE',  ( 5.500000000000000000, 0.02000000000000000000, 7.000000000000000000 ) ) ;
#6 = ADVANCED_FACE ( 'NONE', ( #166 ), #218, .F. ) ;
#7 = SURFACE_SIDE_STYLE ('',( #154 ) ) ;
#8 = PLANE ( 'NONE',  #200 ) ;
#9 = VECTOR ( 'NONE', #220, 1000.000000000000000 ) ;
#10 = FILL_AREA_STYLE ('',( #103 ) ) ;
#11 = AXIS2_PLACEMENT_3D ( 'NONE', #238, #12, #141 ) ;
#12 = DIRECTION ( 'NONE',  ( 0.0000000000000000000, -1.000000000000000000, 0.0000000000000000000 ) ) ;
#13 = CARTESIAN_POINT ( 'NONE',  ( -5.500000000000001800, 0.9200000000000000400, -6.999999999999999100 ) ) ;
#14 = CARTESIAN_POINT ( 'NONE',  ( -5.500000000000001800, 0.9200000000000000400, 7.000000000000000000 ) ) ;
#15 = UNCERTAINTY_MEASURE_WITH_UNIT (LENGTH_MEASURE( 1.000000000000000100E-005 ), #28, 'distance_accuracy_value', 'NONE');
#16 = CARTESIAN_POINT ( 'NONE',  ( -3.500000000000001300, 0.9200000000000000400, -4.999999999999999100 ) ) ;
#17 = ORIENTED_EDGE ( 'NONE', *, *, #58, .F. ) ;
#18 = EDGE_CURVE ( 'NONE', #222, #112, #66, .T. ) ;
#19 = LINE ( 'NONE', #51, #108 ) ;
#20 =( GEOMETRIC_REPRESENTATION_CONTEXT ( 3 ) GLOBAL_UNCERTAINTY_ASSIGNED_CONTEXT ( ( #15 ) ) GLOBAL_UNIT_ASSIGNED_CONTEXT ( ( #28, #157, #47 ) ) REPRESENTATION_CONTEXT ( 'NONE', 'WORKASPACE' ) );
#21 = EDGE_LOOP ( 'NONE', ( #225, #168, #116, #178 ) ) ;
#22 = EDGE_CURVE ( 'NONE', #84, #228, #110, .T. ) ;
#23 = ORIENTED_EDGE ( 'NONE', *, *, #18, .T. ) ;
#24 = VECTOR ( 'NONE', #99, 1000.000000000000000 ) ;
#25 = DIRECTION ( 'NONE',  ( 0.0000000000000000000, -0.0000000000000000000, -1.000000000000000000 ) ) ;
#26 = EDGE_LOOP ( 'NONE', ( #210, #23 ) ) ;
#27 = DIRECTION ( 'NONE',  ( 0.0000000000000000000, 0.0000000000000000000, -1.000000000000000000 ) ) ;
#28 =( LENGTH_UNIT ( ) NAMED_UNIT ( * ) SI_UNIT ( .MILLI., .METRE. ) );
#29 = AXIS2_PLACEMENT_3D ( 'NONE', #71, #201, #88 ) ;
#30 = CARTESIAN_POINT ( 'NONE',  ( -5.500000000000001800, 0.9200000000000000400, 7.000000000000000000 ) ) ;
#31 = VERTEX_POINT ( 'NONE', #70 ) ;
#32 = VECTOR ( 'NONE', #190, 1000.000000000000000 ) ;
#33 = SURFACE_STYLE_USAGE ( .BOTH. , #140 ) ;
#34 = DIRECTION ( 'NONE',  ( 0.0000000000000000000, 0.0000000000000000000, 1.000000000000000000 ) ) ;
#35 = ORIENTED_EDGE ( 'NONE', *, *, #91, .F. ) ;
#36 = CARTESIAN_POINT ( 'NONE',  ( 0.0000000000000000000, 0.9200000000000000400, 0.0000000000000000000 ) ) ;
#37 = DIRECTION ( 'NONE',  ( -0.0000000000000000000, 1.000000000000000000, -0.0000000000000000000 ) ) ;
#38 = PLANE ( 'NONE',  #167 ) ;
#39 = VERTEX_POINT ( 'NONE', #122 ) ;
#40 = DIRECTION ( 'NONE',  ( -0.0000000000000000000, -0.0000000000000000000, 1.000000000000000000 ) ) ;
#41 = ORIENTED_EDGE ( 'NONE', *, *, #129, .F. ) ;
#42 = STYLED_ITEM ( 'NONE', ( #137 ), #183 ) ;
#43 = EDGE_CURVE ( 'NONE', #31, #39, #61, .T. ) ;
#44 = AXIS2_PLACEMENT_3D ( 'NONE', #197, #34, #177 ) ;
#45 = ORIENTED_EDGE ( 'NONE', *, *, #152, .T. ) ;
#46 =( LENGTH_UNIT ( ) NAMED_UNIT ( * ) SI_UNIT ( .MILLI., .METRE. ) );
#47 =( NAMED_UNIT ( * ) SI_UNIT ( $, .STERADIAN. ) SOLID_ANGLE_UNIT ( ) );
#48 = FACE_OUTER_BOUND ( 'NONE', #26, .T. ) ;
#49 = VECTOR ( 'NONE', #160, 1000.000000000000000 ) ;
#50 =( NAMED_UNIT ( * ) PLANE_ANGLE_UNIT ( ) SI_UNIT ( $, .RADIAN. ) );
#51 = CARTESIAN_POINT ( 'NONE',  ( -5.500000000000001800, 0.02000000000000000000, 7.000000000000000000 ) ) ;
#52 =( GEOMETRIC_REPRESENTATION_CONTEXT ( 3 ) GLOBAL_UNCERTAINTY_ASSIGNED_CONTEXT ( ( #59 ) ) GLOBAL_UNIT_ASSIGNED_CONTEXT ( ( #46, #64, #191 ) ) REPRESENTATION_CONTEXT ( 'NONE', 'WORKASPACE' ) );
#53 = PLANE ( 'NONE',  #62 ) ;
#54 = VECTOR ( 'NONE', #239, 1000.000000000000000 ) ;
#55 = AXIS2_PLACEMENT_3D ( 'NONE', #142, #37, #163 ) ;
#56 = VECTOR ( 'NONE', #119, 1000.000000000000000 ) ;
#57 = CLOSED_SHELL ( 'NONE', ( #174, #131, #6, #147, #93, #183, #158 ) ) ;
#58 = EDGE_CURVE ( 'NONE', #39, #223, #19, .T. ) ;
#59 = UNCERTAINTY_MEASURE_WITH_UNIT (LENGTH_MEASURE( 1.000000000000000100E-005 ), #46, 'distance_accuracy_value', 'NONE');
#60 = AXIS2_PLACEMENT_3D ( 'NONE', #65, #192, #83 ) ;
#61 = LINE ( 'NONE', #199, #9 ) ;
#62 = AXIS2_PLACEMENT_3D ( 'NONE', #36, #121, #69 ) ;
#63 = VERTEX_POINT ( 'NONE', #240 ) ;
#64 =( NAMED_UNIT ( * ) PLANE_ANGLE_UNIT ( ) SI_UNIT ( $, .RADIAN. ) );
#65 = CARTESIAN_POINT ( 'NONE',  ( 0.0000000000000000000, 0.0000000000000000000, 0.0000000000000000000 ) ) ;
#66 = CIRCLE ( 'NONE', #55, 0.5000000000000004400 ) ;
#67 = DIRECTION ( 'NONE',  ( 1.000000000000000000, -0.0000000000000000000, 0.0000000000000000000 ) ) ;
#68 = DIRECTION ( 'NONE',  ( -0.0000000000000000000, -1.000000000000000000, -0.0000000000000000000 ) ) ;
#69 = DIRECTION ( 'NONE',  ( 0.0000000000000000000, -0.0000000000000000000, -1.000000000000000000 ) ) ;
#70 = CARTESIAN_POINT ( 'NONE',  ( -5.500000000000001800, 0.9200000000000000400, 7.000000000000000000 ) ) ;
#71 = CARTESIAN_POINT ( 'NONE',  ( -3.500000000000001300, 0.9200000000000000400, -4.499999999999999100 ) ) ;
#72 = PRODUCT_DEFINITION ( 'UNKNOWN', '', #81, #243 ) ;
#73 = ORIENTED_EDGE ( 'NONE', *, *, #18, .F. ) ;
#74 = ORIENTED_EDGE ( 'NONE', *, *, #229, .T. ) ;
#75 = LINE ( 'NONE', #5, #111 ) ;
#76 = AXIS2_PLACEMENT_3D ( 'NONE', #3, #135, #25 ) ;
#77 = EDGE_LOOP ( 'NONE', ( #74, #41, #165, #213 ) ) ;
#78 = ORIENTED_EDGE ( 'NONE', *, *, #206, .T. ) ;
#79 = EDGE_LOOP ( 'NONE', ( #236, #125, #204, #170 ) ) ;
#80 = SURFACE_STYLE_USAGE ( .BOTH. , #189 ) ;
#81 = PRODUCT_DEFINITION_FORMATION_WITH_SPECIFIED_SOURCE ( 'ANY', '', #195, .NOT_KNOWN. ) ;
#82 = CARTESIAN_POINT ( 'NONE',  ( 5.500000000000000000, 0.9200000000000000400, 7.000000000000000000 ) ) ;
#83 = DIRECTION ( 'NONE',  ( 1.000000000000000000, 0.0000000000000000000, 0.0000000000000000000 ) ) ;
#84 = VERTEX_POINT ( 'NONE', #87 ) ;
#85 = PRESENTATION_LAYER_ASSIGNMENT (  '', '', ( #42 ) ) ;
#86 = FILL_AREA_STYLE_COLOUR ( '', #186 ) ;
#87 = CARTESIAN_POINT ( 'NONE',  ( -5.500000000000001800, 0.9200000000000000400, -6.999999999999999100 ) ) ;
#88 = DIRECTION ( 'NONE',  ( 0.0000000000000000000, 0.0000000000000000000, -1.000000000000000000 ) ) ;
#89 = AXIS2_PLACEMENT_3D ( 'NONE', #14, #221, #107 ) ;
#90 = LINE ( 'NONE', #235, #56 ) ;
#91 = EDGE_CURVE ( 'NONE', #112, #222, #153, .T. ) ;
#92 = PRODUCT_RELATED_PRODUCT_CATEGORY ( 'part', '', ( #195 ) ) ;
#93 = ADVANCED_FACE ( 'NONE', ( #102 ), #124, .F. ) ;
#94 = FACE_OUTER_BOUND ( 'NONE', #172, .T. ) ;
#95 = VECTOR ( 'NONE', #128, 1000.000000000000000 ) ;
#96 = EDGE_LOOP ( 'NONE', ( #35, #73 ) ) ;
#97 = EDGE_CURVE ( 'NONE', #228, #39, #1, .T. ) ;
#98 =( NAMED_UNIT ( * ) PLANE_ANGLE_UNIT ( ) SI_UNIT ( $, .RADIAN. ) );
#99 = DIRECTION ( 'NONE',  ( 0.0000000000000000000, 0.0000000000000000000, -1.000000000000000000 ) ) ;
#100 = VECTOR ( 'NONE', #104, 1000.000000000000000 ) ;
#101 = DIRECTION ( 'NONE',  ( -1.000000000000000000, 0.0000000000000000000, 0.0000000000000000000 ) ) ;
#102 = FACE_OUTER_BOUND ( 'NONE', #21, .T. ) ;
#103 = FILL_AREA_STYLE_COLOUR ( '', #246 ) ;
#104 = DIRECTION ( 'NONE',  ( -1.000000000000000000, -0.0000000000000000000, -0.0000000000000000000 ) ) ;
#105 = PRESENTATION_STYLE_ASSIGNMENT (( #136 ) ) ;
#106 = CARTESIAN_POINT ( 'NONE',  ( -5.500000000000001800, 0.9200000000000000400, 7.000000000000000000 ) ) ;
#107 = DIRECTION ( 'NONE',  ( -1.000000000000000000, 0.0000000000000000000, -0.0000000000000000000 ) ) ;
#108 = VECTOR ( 'NONE', #180, 1000.000000000000000 ) ;
#109 = ORIENTED_EDGE ( 'NONE', *, *, #152, .F. ) ;
#110 = LINE ( 'NONE', #13, #159 ) ;
#111 = VECTOR ( 'NONE', #27, 1000.000000000000000 ) ;
#112 = VERTEX_POINT ( 'NONE', #16 ) ;
#113 = APPLICATION_CONTEXT ( 'automotive_design' ) ;
#114 = CARTESIAN_POINT ( 'NONE',  ( -3.500000000000001300, 0.9200000000000000400, -3.999999999999998200 ) ) ;
#115 = FILL_AREA_STYLE ('',( #156 ) ) ;
#116 = ORIENTED_EDGE ( 'NONE', *, *, #175, .F. ) ;
#117 = CARTESIAN_POINT ( 'NONE',  ( -5.500000000000001800, 0.9200000000000000400, -6.999999999999999100 ) ) ;
#118 = ORIENTED_EDGE ( 'NONE', *, *, #129, .T. ) ;
#119 = DIRECTION ( 'NONE',  ( -0.0000000000000000000, -1.000000000000000000, -0.0000000000000000000 ) ) ;
#120 = LINE ( 'NONE', #82, #24 ) ;
#121 = DIRECTION ( 'NONE',  ( 0.0000000000000000000, -1.000000000000000000, 0.0000000000000000000 ) ) ;
#122 = CARTESIAN_POINT ( 'NONE',  ( -5.500000000000001800, 0.02000000000000000000, 7.000000000000000000 ) ) ;
#123 = VERTEX_POINT ( 'NONE', #242 ) ;
#124 = PLANE ( 'NONE',  #89 ) ;
#125 = ORIENTED_EDGE ( 'NONE', *, *, #43, .F. ) ;
#126 = FILL_AREA_STYLE ('',( #86 ) ) ;
#127 = ADVANCED_BREP_SHAPE_REPRESENTATION ( 'ST_powerSTEP01', ( #150, #60 ), #52 ) ;
#128 = DIRECTION ( 'NONE',  ( -0.0000000000000000000, -1.000000000000000000, -0.0000000000000000000 ) ) ;
#129 = EDGE_CURVE ( 'NONE', #63, #123, #149, .T. ) ;
#130 = EDGE_LOOP ( 'NONE', ( #182, #17, #227, #109 ) ) ;
#131 = ADVANCED_FACE ( 'NONE', ( #202 ), #38, .F. ) ;
#132 = PRODUCT_DEFINITION_SHAPE ( 'NONE', 'NONE',  #72 ) ;
#133 = ORIENTED_EDGE ( 'NONE', *, *, #22, .F. ) ;
#134 = PRESENTATION_LAYER_ASSIGNMENT (  '', '', ( #185 ) ) ;
#135 = DIRECTION ( 'NONE',  ( 0.0000000000000000000, -1.000000000000000000, 0.0000000000000000000 ) ) ;
#136 = SURFACE_STYLE_USAGE ( .BOTH. , #7 ) ;
#137 = PRESENTATION_STYLE_ASSIGNMENT (( #80 ) ) ;
#138 = EDGE_CURVE ( 'NONE', #63, #84, #196, .T. ) ;
#139 = ORIENTED_EDGE ( 'NONE', *, *, #207, .T. ) ;
#140 = SURFACE_SIDE_STYLE ('',( #237 ) ) ;
#141 = DIRECTION ( 'NONE',  ( 0.0000000000000000000, -0.0000000000000000000, -1.000000000000000000 ) ) ;
#142 = CARTESIAN_POINT ( 'NONE',  ( -3.500000000000001300, 0.9200000000000000400, -4.499999999999999100 ) ) ;
#143 = ORIENTED_EDGE ( 'NONE', *, *, #138, .F. ) ;
#144 = CARTESIAN_POINT ( 'NONE',  ( -5.500000000000001800, 0.02000000000000000000, 7.000000000000000000 ) ) ;
#145 = FACE_BOUND ( 'NONE', #96, .T. ) ;
#146 = EDGE_LOOP ( 'NONE', ( #45, #133, #143, #118 ) ) ;
#147 = ADVANCED_FACE ( 'NONE', ( #188 ), #8, .F. ) ;
#148 = EDGE_CURVE ( 'NONE', #230, #223, #90, .T. ) ;
#149 = LINE ( 'NONE', #161, #95 ) ;
#150 = MANIFOLD_SOLID_BREP ( 'Split Line1', #57 ) ;
#151 = LINE ( 'NONE', #215, #100 ) ;
#152 = EDGE_CURVE ( 'NONE', #123, #228, #151, .T. ) ;
#153 = CIRCLE ( 'NONE', #29, 0.5000000000000004400 ) ;
#154 = SURFACE_STYLE_FILL_AREA ( #115 ) ;
#155 = CARTESIAN_POINT ( 'NONE',  ( -5.500000000000001800, 0.9200000000000000400, 7.000000000000000000 ) ) ;
#156 = FILL_AREA_STYLE_COLOUR ( '', #203 ) ;
#157 =( NAMED_UNIT ( * ) PLANE_ANGLE_UNIT ( ) SI_UNIT ( $, .RADIAN. ) );
#158 = ADVANCED_FACE ( 'NONE', ( #247 ), #217, .T. ) ;
#159 = VECTOR ( 'NONE', #68, 1000.000000000000000 ) ;
#160 = DIRECTION ( 'NONE',  ( -1.000000000000000000, -0.0000000000000000000, -0.0000000000000000000 ) ) ;
#161 = CARTESIAN_POINT ( 'NONE',  ( 5.500000000000000000, 0.9200000000000000400, -6.999999999999999100 ) ) ;
#162 =( LENGTH_UNIT ( ) NAMED_UNIT ( * ) SI_UNIT ( .MILLI., .METRE. ) );
#163 = DIRECTION ( 'NONE',  ( 0.0000000000000000000, 0.0000000000000000000, -1.000000000000000000 ) ) ;
#164 = UNCERTAINTY_MEASURE_WITH_UNIT (LENGTH_MEASURE( 1.000000000000000100E-005 ), #162, 'distance_accuracy_value', 'NONE');
#165 = ORIENTED_EDGE ( 'NONE', *, *, #207, .F. ) ;
#166 = FACE_OUTER_BOUND ( 'NONE', #146, .T. ) ;
#167 = AXIS2_PLACEMENT_3D ( 'NONE', #214, #101, #234 ) ;
#168 = ORIENTED_EDGE ( 'NONE', *, *, #148, .F. ) ;
#169 = ORIENTED_EDGE ( 'NONE', *, *, #175, .T. ) ;
#170 = ORIENTED_EDGE ( 'NONE', *, *, #22, .T. ) ;
#171 = LINE ( 'NONE', #155, #32 ) ;
#172 = EDGE_LOOP ( 'NONE', ( #139, #173, #78, #169 ) ) ;
#173 = ORIENTED_EDGE ( 'NONE', *, *, #138, .T. ) ;
#174 = ADVANCED_FACE ( 'NONE', ( #94, #145 ), #53, .F. ) ;
#175 = EDGE_CURVE ( 'NONE', #31, #230, #244, .T. ) ;
#176 =( NAMED_UNIT ( * ) SI_UNIT ( $, .STERADIAN. ) SOLID_ANGLE_UNIT ( ) );
#177 = DIRECTION ( 'NONE',  ( 1.000000000000000000, 0.0000000000000000000, -0.0000000000000000000 ) ) ;
#178 = ORIENTED_EDGE ( 'NONE', *, *, #43, .T. ) ;
#179 = PLANE ( 'NONE',  #76 ) ;
#180 = DIRECTION ( 'NONE',  ( 1.000000000000000000, 0.0000000000000000000, 0.0000000000000000000 ) ) ;
#181 = MECHANICAL_DESIGN_GEOMETRIC_PRESENTATION_REPRESENTATION (  '', ( #185 ), #187 ) ;
#182 = ORIENTED_EDGE ( 'NONE', *, *, #229, .F. ) ;
#183 = ADVANCED_FACE ( 'NONE', ( #48 ), #179, .F. ) ;
#184 = PRESENTATION_STYLE_ASSIGNMENT (( #33 ) ) ;
#185 = STYLED_ITEM ( 'NONE', ( #184 ), #150 ) ;
#186 = COLOUR_RGB ( '',1.000000000000000000, 1.000000000000000000, 1.000000000000000000 ) ;
#187 =( GEOMETRIC_REPRESENTATION_CONTEXT ( 3 ) GLOBAL_UNCERTAINTY_ASSIGNED_CONTEXT ( ( #164 ) ) GLOBAL_UNIT_ASSIGNED_CONTEXT ( ( #162, #50, #176 ) ) REPRESENTATION_CONTEXT ( 'NONE', 'WORKASPACE' ) );
#188 = FACE_OUTER_BOUND ( 'NONE', #79, .T. ) ;
#189 = SURFACE_SIDE_STYLE ('',( #193 ) ) ;
#190 = DIRECTION ( 'NONE',  ( -0.0000000000000000000, -0.0000000000000000000, 1.000000000000000000 ) ) ;
#191 =( NAMED_UNIT ( * ) SI_UNIT ( $, .STERADIAN. ) SOLID_ANGLE_UNIT ( ) );
#192 = DIRECTION ( 'NONE',  ( 0.0000000000000000000, 0.0000000000000000000, 1.000000000000000000 ) ) ;
#193 = SURFACE_STYLE_FILL_AREA ( #126 ) ;
#194 = DIRECTION ( 'NONE',  ( 0.0000000000000000000, 0.0000000000000000000, -1.000000000000000000 ) ) ;
#195 = PRODUCT ( 'ST_powerSTEP01', 'ST_powerSTEP01', '', ( #212 ) ) ;
#196 = LINE ( 'NONE', #117, #49 ) ;
#197 = CARTESIAN_POINT ( 'NONE',  ( -5.500000000000001800, 0.9200000000000000400, -6.999999999999999100 ) ) ;
#198 = CARTESIAN_POINT ( 'NONE',  ( 5.500000000000000000, 0.9200000000000000400, 7.000000000000000000 ) ) ;
#199 = CARTESIAN_POINT ( 'NONE',  ( -5.500000000000001800, 0.9200000000000000400, 7.000000000000000000 ) ) ;
#200 = AXIS2_PLACEMENT_3D ( 'NONE', #30, #67, #194 ) ;
#201 = DIRECTION ( 'NONE',  ( -0.0000000000000000000, 1.000000000000000000, -0.0000000000000000000 ) ) ;
#202 = FACE_OUTER_BOUND ( 'NONE', #77, .T. ) ;
#203 = COLOUR_RGB ( '',0.0000000000000000000, 0.0000000000000000000, 0.0000000000000000000 ) ;
#204 = ORIENTED_EDGE ( 'NONE', *, *, #206, .F. ) ;
#205 = VECTOR ( 'NONE', #40, 1000.000000000000000 ) ;
#206 = EDGE_CURVE ( 'NONE', #84, #31, #171, .T. ) ;
#207 = EDGE_CURVE ( 'NONE', #230, #63, #120, .T. ) ;
#208 =( LENGTH_UNIT ( ) NAMED_UNIT ( * ) SI_UNIT ( .MILLI., .METRE. ) );
#209 = UNCERTAINTY_MEASURE_WITH_UNIT (LENGTH_MEASURE( 1.000000000000000100E-005 ), #208, 'distance_accuracy_value', 'NONE');
#210 = ORIENTED_EDGE ( 'NONE', *, *, #91, .T. ) ;
#211 = APPLICATION_PROTOCOL_DEFINITION ( 'draft international standard', 'automotive_design', 1998, #233 ) ;
#212 = PRODUCT_CONTEXT ( 'NONE', #233, 'mechanical' ) ;
#213 = ORIENTED_EDGE ( 'NONE', *, *, #148, .T. ) ;
#214 = CARTESIAN_POINT ( 'NONE',  ( 5.500000000000000000, 0.9200000000000000400, 7.000000000000000000 ) ) ;
#215 = CARTESIAN_POINT ( 'NONE',  ( -5.500000000000001800, 0.02000000000000000000, -6.999999999999999100 ) ) ;
#216 = MECHANICAL_DESIGN_GEOMETRIC_PRESENTATION_REPRESENTATION (  '', ( #42 ), #245 ) ;
#217 = PLANE ( 'NONE',  #11 ) ;
#218 = PLANE ( 'NONE',  #44 ) ;
#219 = CARTESIAN_POINT ( 'NONE',  ( -5.500000000000001800, 0.02000000000000000000, -6.999999999999999100 ) ) ;
#220 = DIRECTION ( 'NONE',  ( -0.0000000000000000000, -1.000000000000000000, -0.0000000000000000000 ) ) ;
#221 = DIRECTION ( 'NONE',  ( 0.0000000000000000000, 0.0000000000000000000, -1.000000000000000000 ) ) ;
#222 = VERTEX_POINT ( 'NONE', #114 ) ;
#223 = VERTEX_POINT ( 'NONE', #232 ) ;
#224 = SHAPE_DEFINITION_REPRESENTATION ( #132, #127 ) ;
#225 = ORIENTED_EDGE ( 'NONE', *, *, #58, .T. ) ;
#226 = STYLED_ITEM ( 'NONE', ( #105 ), #127 ) ;
#227 = ORIENTED_EDGE ( 'NONE', *, *, #97, .F. ) ;
#228 = VERTEX_POINT ( 'NONE', #219 ) ;
#229 = EDGE_CURVE ( 'NONE', #223, #123, #75, .T. ) ;
#230 = VERTEX_POINT ( 'NONE', #198 ) ;
#231 =( NAMED_UNIT ( * ) SI_UNIT ( $, .STERADIAN. ) SOLID_ANGLE_UNIT ( ) );
#232 = CARTESIAN_POINT ( 'NONE',  ( 5.500000000000000000, 0.02000000000000000000, 7.000000000000000000 ) ) ;
#233 = APPLICATION_CONTEXT ( 'automotive_design' ) ;
#234 = DIRECTION ( 'NONE',  ( 0.0000000000000000000, 0.0000000000000000000, 1.000000000000000000 ) ) ;
#235 = CARTESIAN_POINT ( 'NONE',  ( 5.500000000000000000, 0.9200000000000000400, 7.000000000000000000 ) ) ;
#236 = ORIENTED_EDGE ( 'NONE', *, *, #97, .T. ) ;
#237 = SURFACE_STYLE_FILL_AREA ( #10 ) ;
#238 = CARTESIAN_POINT ( 'NONE',  ( 0.0000000000000000000, 0.02000000000000000000, 0.0000000000000000000 ) ) ;
#239 = DIRECTION ( 'NONE',  ( 1.000000000000000000, 0.0000000000000000000, 0.0000000000000000000 ) ) ;
#240 = CARTESIAN_POINT ( 'NONE',  ( 5.500000000000000000, 0.9200000000000000400, -6.999999999999999100 ) ) ;
#241 = PRESENTATION_LAYER_ASSIGNMENT (  '', '', ( #226 ) ) ;
#242 = CARTESIAN_POINT ( 'NONE',  ( 5.500000000000000000, 0.02000000000000000000, -6.999999999999999100 ) ) ;
#243 = PRODUCT_DEFINITION_CONTEXT ( 'detailed design', #113, 'design' ) ;
#244 = LINE ( 'NONE', #106, #54 ) ;
#245 =( GEOMETRIC_REPRESENTATION_CONTEXT ( 3 ) GLOBAL_UNCERTAINTY_ASSIGNED_CONTEXT ( ( #209 ) ) GLOBAL_UNIT_ASSIGNED_CONTEXT ( ( #208, #98, #231 ) ) REPRESENTATION_CONTEXT ( 'NONE', 'WORKASPACE' ) );
#246 = COLOUR_RGB ( '',0.0000000000000000000, 0.0000000000000000000, 0.0000000000000000000 ) ;
#247 = FACE_OUTER_BOUND ( 'NONE', #130, .T. ) ;
ENDSEC;
END-ISO-10303-21;
